Oops, an error
Loading. Please wait.

Break For The Border Bass Tab

316 views 1 this week
no commentswrite comment
1 2 3 4 5
please rate
add to favorites
launch autoscroll
font size
0
reset
guitar tuner
Autoscroll
slow
fast
+/-
esc
set tempo
stop
Help us to improve Ultimate-Guitar.com Take our survey!
×
Difficulty
novice
Artist: Babe Ruth
Album: Que Pasa
Song: Break for the Border
Tabbed by: Christoph Terasa aka Kohlrabi (kohlrabi82@gmx.de)

Tuning: Regular EADG

figure 1:
G|------------------------------------|
D|------------------------------------|
A|-------------2-------------0--------|
E|-0----0--3-----3---2----2------3----|

figure 2:
G|------------------------------------|
D|-------------2-------------0--------|
A|-0----0--3-----3---2----2------3----|
E|------------------------------------|

variation of figure 2:
G|------------------------------------|
D|-------------2-------------1---4----|
A|-0----0--3-----3---2----2-----------|
E|------------------------------------|

Chorus: "break for the border..."
G|----------------------------------------|
D|----------------------------------------|
A|-12-----10----10-----8------7----7------|
E|----------------------------------------|

Bridge:
G|-------------------------------------------------------------------------------7-----7------|
D|------10--12--10----------------12--10--9--------------7--9--7--------------6-----9-----9---|
A|-12---------------14--12---10--------------12--10---8-----------10--8---7-------------------|
E|--------------------------------------------------------------------------------------------|

Outro:
G|--------------------------------------------------------------------------------------------|
D|-------------------------------------------------------------------------------7-----7------|
A|------10--12--10----------------12--10--9--------------7--9--7--------------6-----9-----9---|
E|-12---------------14--12---10--------------12--10---8-----------10--8---7-------------------|


Song structure:

rest 4 bars
fig. 1 4x
fig. 2 2x
fig. 1 2x
var. fig. 2 2x
rest for 2 bars
fig. 1 3x
fig. 2 2x
fig. 1 2x
var. fig. 2 2x
Chorus 3x
rest 4 bars
fig. 1 3x
fig. 2 2x
fig. 1 2x
var. fig. 2 4x
rest for 8 bars
fig. 1 1x
fig. 2 2x
fig. 1 2x
var. fig. 2 4x
Chorus 3x
rest 4 bars
Bridge 2x
Chorus 3x
fig. 2 3x
rest 4 bars
Outro 4x


basically it's the same figures transposed by a fourth (5 semitones). I think there is 
bass on the bridge, so I just added the transposed outro part. For a bit more fun 
a bit on the figures, these are just the basics.

LEGEND AND NOTES:
h: Hammer-on            p: Pull-off         b: Bend string up
r: Unbend string        /: Slide up         \: Slide down
: Harmonics       x: Muted string     v: Vibrato
t: Tap
Suggest correction
What's this?
You can suggest a correction to this tab. Community and Mods will review your correction and vote to approve or reject it.
comments
We did not receive enough feedback on this tab! Please rate:
print report bad tab
1 2 3 4 5
guest
You may want to rate the tab now too:
select rating
Please do not post tabs as comments. Select "correction" instead!