Oops, an error
Loading. Please wait.

Rush You Tab

10,832 views 15 this week
no commentswrite comment
1 2 3 4 5
x 4
add to favorites
launch autoscroll
font size
0
reset
how to read this tab
guitar tuner
Autoscroll
slow
fast
+/-
esc
set tempo
stop
Help us to improve Ultimate-Guitar.com Take our survey!
×
Author
Rush You -Baby Animals

Tabbed by peatemark@hotmail.com
Tune down a half step people 

Intro
|----------------|---------------|---------------------|----------|
|----------------|---------------|---------------------|----------|
|-9---999-999----|---------------|---------------------|----------|
|-9---999-999----|---7-5-----7-5-|---7-5-----5---------|---x3-----|
|-7---777-777----|-0-----057-----|-0------3-5-5--5-3-0-|----------| 
|-0---000-000----|---------------|---------------------|----------| 

(Riff 2)
2,3,4
|-----------------|----------------|-----------|---------------|-----|
|-----------------|----------------|-----------|---------------|-----|
|--2-------2—-5~~-|-7-5------------|----2—-7~~-|7-5------------|-x-3-|
|--2-------2—-5~~-|-7-5-7-555—5/7~-|----2—-7~~-|7-5--555—5/7~--|-----|
|--0-------0—-----|-----7-555-5/7~-|----0------|-----555-5/7~--|-----|
|------3----------|----------------|--3--------|---------------|-----|

(Riff 3)
|-------------------|	
|-------------------| 
|-------------------| 
|-------------5-7~~~| 
|-04-05-06-07-------| 
|-------------------| 

Verse 1 (Riff 4)
Love is no fun anymore
|-----------|-----------|------------------|------------|		
|-----------|-----------|------------------|------------| 
|--2--------|-----------|----0202----------|------------|	
|--2--------|-----------|------------4545--|------------|	
|--0000-0000|-0000-0000-|-00------00-------|-0000-0000--|	
|-----------|-----------|------------------|------------|	

There's too many things I can't afford
|----------------------|------------------|--------------|	
|----------------------|------------------|--------------|
|--2-------------------|---0202---------2-|-----------7\-|	
|--2-------------------|----------4545--2-|-----------7\-|	
|--0000-0000-0000-0000-|-00-----00------0-|-----------5\-|	
|----------------------|------------------|--------------|	

So what do you mean when you say
That she's your girlfriend today

	
Chorus
				A	    C
I wouldn't ever wanna rush you Don't want to lose you
		E	  C      D	A
I'd never fuss you But I love I love I love you
Rush you Don't wanna lose you I'd never fuss you
But I love I love I love you

(Riff 2  & Riff 3)

Verse2 
Love's not beating down on my door
I guess it's cause ooh, I got lucky, lucky before

Chorus

Riff 1 (x 2)   then Riff 2 & Riff 3

Bridge
Wealth is boring without happiness
Fame is notorious for causing stress
Health is for binging on in between drinks
|----------|-----------|--------------|		 
|----------|--5-3------|----3---------|		 
|------2---|------2-2--|--2---2----2--|		
|---5--2---|--------0--|--------2--2--|		
|---5--0---|--------0--|-----------0--|		
|---3------|-----------|--------------|		

  Money over matter for the rich in minks
|----------------------|----------------|
|----------------------|----------------|
|--5\------------------|----------4---4-|
|--5\------------------|----------4---4-|
|--3\------------------|----------2---2-|
|----------------------|----------------|


Chorus x 2

End
							A
Oooooh you know I love you ooooh Yes I do
Suggest correction
comments
print report bad tab
guest
You may want to rate the tab now too:
select rating
Wanna post a correction for this tab? Suggest correction