Oops, an error
Loading. Please wait.

Suga Suga Tab

version 4
version 4

Whole song

Interactive

86,294 views 177 this week
5 commentsread comments
1 2 3 4 5
x 92
add to favorites
launch autoscroll
font size
0
reset
how to read this tab
guitar tuner
Autoscroll
slow
fast
+/-
esc
set tempo
stop
Help us to improve Ultimate-Guitar.com Take our survey!
×
Author
Capo
1st fret
Ok so I watched some videos and came up with a decent tab for this song.  A buddy of 
and I are covering it...so I figured I'd post it.  Here's the main guitar riff for "Suga Suga".

Suga Suga by Baby Bash

Capo on 1st fret

E|-------------------------------|----------------------------|
B|---1---1h3p1-------------------|----------------------------|
G|-----2---------0---0---0h2p0---|--------------2---2h4p2---0-|
D|-----------------2---2-------2-|---2/4--4-------------------|
A|-0-----------0-----------------|-3--/-5---5-0---0-------0---|
E|-------------------------------|----------------------------|


************************************

| h  Hammer-on
| p  Pull-off
| /  Slide up

************************************
Suggest correction
comments
print report bad tab
5 comments total. Showing first comments.
+1 reply
kgl2008 82 Mar 23, 2009 02:19 PM

The /4 and /5 should be lined up, i just had an extra dash in there.
E|----------------------------|
B|----------------------------|
G|--------------2---2h4p2---0-|
D|---2/4---4------------------|
A|-3--/5-5----0---0-------0---|
E|----------------------------|

0 reply
Thomathon 42 Jun 29, 2009 02:15 AM, edited on June 15 2014, 07:24 am

Closer than any of the others

0 reply
SickBwoY 32 Feb 05, 2015 08:19 AM

It sounds good to me and very pleasant to play. 5*

guest
You may want to rate the tab now too:
select rating
Wanna post a correction for this tab? Suggest correction