Oops, an error
Loading. Please wait.

Pure Evil chords

787 views 1 this week
4 commentsread comments
1 2 3 4 5
2 more votes to show rating
add to favorites
×
Save as Personal and add changes to this tab that will be seen only by you. Learn more ›
×
You can save this tab as Personal to edit and correct it or add notes. All changes will be seen only by you. Learn more »
launch autoscroll
font size
0
reset
transpose
0
reset
display chords
guitar tuner
edit
Autoscroll
slow
fast
+/-
esc
set tempo
stop
Author
Difficulty
Strumming
There is no strumming pattern for this song yet. and get +5 IQ
-----------------------------------------------------------------------------
                          PURE EVIL-Baby Strange
-----------------------------------------------------------------------------

Intro
e|-------------------------------------------------------------------------|
B|-------------------------------------------------------------------------|
G|-0h2--8--7--5--2-0-2-----0h2--8--7--5--2-0-2-----------------------------|
D|-------------------------------------------------------------------------|
A|-------------------------------------------------------------------------|
E|-------------------------------------------------------------------------|

e|-------------------------------------------------------------------------|
B|-------------------------------------------------------------------------|
G|-8--7--5--2-0---8--7--5--2-0---------------------------------------------|
D|-------------------------------------------------------------------------|
A|-------------------------------------------------------------------------|
E|-------------------------------------------------------------------------|


A
I found love on a Friday, never again
I found my eyes getting blinded, never again
  C                  F#      G         A
I hope that when you find me you'll be scared
  C                  F#      G        A
I hope that when you find me I'll be dead

e|-------------------------------------------------------------------------|
B|-------------------------------------------------------------------------|
G|-8--7--5--2-0---8--7--5--2-0---------------------------------------------|
D|-------------------------------------------------------------------------|
A|-------------------------------------------------------------------------|
E|-------------------------------------------------------------------------|

A
I fell in love on a Friday, waiting for you
Something died inside me, coz I know I don't need you
      C                  F#      G         A
But I hope that when you find me you'll be scared
  C                  F#      G       A
I hope that when you find me I'll be dead

A
Ew I'm tired of my generation
Ew I only wanna be alone
   C   F#       G      A
Ew I'm tired of my own form

A
Lost me on a Thursday
I was going to be seen
I crept up behind her
  C                  F#       G       A
I hope that when you find out I'll be dead
  C                  F#       G         A
I hope that when you find out you'll be scared

A
Ew I'm tired of my generation
Ew I only wanna be alone
   C   F#       G      A
Ew i'm tired of my own form

A
Ew I'm tired of my generation
Ew I only wanna be alone
   C   F#       G      A
Ew I'm tired of my own form

C    F#   G    A
Ahhh ahhh ahhh ahhh

C    F#   G    A
Ahhh ahhh ahhh ahhh


e|-------------------------------------------------------------------------|
B|-------------------------------------------------------------------------|
G|-------------------------------------------------------------------------|
D|-------------------------------------------------------------------------|
A|-----3----3----3---3-2---------------------------------------------------|
E|--55---55---55---5-----3-------------------------------------------------|

A
Ew I'm tired of my generation
Ew I only wanna be alone
   C   F#       G      A
Ew I'm tired of my own form

A
Ew I'm tired of my generation
Ew I only wanna be alone
   C   F#       G      A
Ew I'm tired of my own form

A
Ew I'm tired of my own form
          A
My own form
          A
My own form
          A
My own form
          A
My own form


https://www.facebook.com/babystrangemusic?fref=ts

            
            
Suggest correction
Creating personal tab
Creating personal tab
You can edit any tab online and save it as your Personal.

You can edit, replace or remove any tab part or add personal notes – all changes will be seen only by you.

Personal tabs can be accessed anytime from any device, even offline.
Learn more »
Give kudos to tab author, rate the tab!
1 2 3 4 5
comments
print report bad tab
4 comments total. Showing first comments.
0 reply
hazuing 112 Aug 24, 2013 10:13 AM

Ew I only wanna be alone*

guest
You may want to rate the tab now too:
select rating
Wanna post a correction for this tab? Suggest correction