Oops, an error
Loading. Please wait.

Dance Radio Tab

269 views 3 this week
no commentswrite comment
1 2 3 4 5
3 more votes to show rating
add to favorites
launch autoscroll
font size
0
reset
how to read this tab
guitar tuner
Autoscroll
slow
fast
+/-
esc
set tempo
stop
Help us to improve Ultimate-Guitar.com Take our survey!
×
Author
Difficulty
-----------------------------------------------------------------------------
                        DANCE RADIO - Baby Universal
-----------------------------------------------------------------------------



Intro/similar to chorus

GTR 1
e|------------------------|------------------------|------------------------|
B|------------------------|------------------------|------------------------|
G|13-13-13-13-13-13-13-13-|12-13-10-10-10-10-10-10-|13-13-13-13-13-13-12-13-|
D|10-10-10-10-10-10-10-10-|10-10-10-10-10-10-10-10-|11-11-11-11-11-11-11-11-|
A|------------------------|------------------------|------------------------|
E|------------------------|------------------------|------------------------|

e|------------------------|
B|------------------------|
G|10-10-10-10-10-10-10-10-|
D|8--8--8--8--8--8--8--8--|
A|------------------------|
E|------------------------|


GTR 2 (Capo II)
e|0-------|0-------|3-------|--------|0-------|0-------|3-------|--------|
B|0-------|0-------|3-------|--------|0-------|0-------|3-------|--------|
G|x-------|2-------|0-------|2--2-42-|x-------|2-------|0-------|222-----|
D|2-------|x-------|2-------|2--2---2|2-------|x-------|2-------|222-----|
A|2-------|2-------|3-------|0--0----|2-------|2-------|3-------|000-----|
E|0-------|--------|--------|--------|0-------|--------|--------|--------|


Vers

GTR 1
e|----------|--------|--------|--------|
B|----10----|---5----|---7----|---3----|
G|----------|--------|--------|--------|   play 4 times
D|--11------|--6-----|--7-----|--4-----|
A|-9--------|-4------|-5------|-2------|
E|----------|--------|--------|--------|


Solo

e|------------------------|------------------------|
B|14----------------------|------------------------|
G|---14-16-13-14----13----|------------------------|     repeat...
D|---------------16----14-|16-11-12----11----------|
A|------------------------|---------14----12-14-11-|
E|------------------------|------------------------|




give me some good life
give me a taste
my teeth are broken
chewed on the diamonds of disgrace
one for the money
two for the show
give me some candy
buy me a dream now go cat go

-
dance dance dance to the radio
dance dance dance to the song
dance dance dance like charly b goode 
into the wild wild morning
dance dance dance to the radio
dance dance dance to the song
dance dance dance like charly b goode 
into the wild wild morning

-
station to station
turn on your wild eye
glitterball`s broken
the stars are crashing in the sky
one for the money
two for the show
charly is jiving
on the volcano

-
dance dance dance to the radio...

hey now we`re easier to bruise
cry out the gods are broken too

-
dance dance dance to the radio
dance dance dance to the song
dance dance dance like charly b goode 
into the wild wild morning
dance dance dance to the radio
dance dance dance to the song
dance dance dance like a falling star 
into the wild wild morning
cry out
crying out right now!


www.baby-universal.com
Suggest correction
Give kudos to tab author, rate the tab!
1 2 3 4 5
comments
print report bad tab
guest
You may want to rate the tab now too:
select rating
Wanna post a correction for this tab? Suggest correction