Oops, an error
Loading. Please wait.

Dancing Witches Chords

269 views 1 this week
no commentswrite comment
1 2 3 4 5
please rate
add to favorites
launch autoscroll
font size
0
reset
transpose
0
reset
simplify chords
display chords
guitar tuner
Autoscroll
slow
fast
+/-
esc
set tempo
stop
Help us to improve Ultimate-Guitar.com Take our survey!
×
-------------------------------------------------------------------------------
                        DANCING WITCHES - Baby Universal
-------------------------------------------------------------------------------

Tuning: EADGHe

CHORDS:

e|---------------------------------------------------------------------------|
B|---3-----3-----3-----3-------3------3-------3--------3------3------8-------|
G|---x-----0-----2-----3-------2------0-------0--------2------2------8-------|
D|---3-----0-----0-----1-------3------0-------1--------x------0------8-------|
A|---1-----x-------------------------------------------3------x------6-------|
E|---------3-------------------------------------------1------3------6-------|

    Bb    G5     D5   Ebmaj7  F6    G5/D   Ebmaj7     F6*    Gsus2   Eb/Bb




DANCING WITCHES


Bb           G5             D5            Ebmaj7
where`re you dancing witches
Bb            G5          D5            Ebmaj7
met a man who told me that
Bb           G5            D5            Ebmaj7
you`re down with the fishes,now 
       Bb     G         D5            Ebmaj7  
here I am and sit and beg


F6
give me pain and give me mercy
G5/D
I am hungry I am thirsty
F6
I`m here with the other folks who
Ebmaj7
make love in the ruin of this town


Bb    G5        D5             Ebmaj7
Do-Do-Do-Do-Doo   where`re you dancing witches   (3x)
Bb    G5        D5      Ebmaj7
Do-Do-Do-Do-Doo    yeah-yeah-yeah


Bb           G5             D5        Ebmaj7
where`re you dancing witches
       Bb        G5        D5        Ebmaj7
met a girl with eyes like stars
Bb    G5               D5            Ebmaj7
and a tale she told me, now
     Bb       G5     D5            Ebmaj7
I am left out in the dark


give me pain and give me mercy....


where`re you dancing witches....


F6*           G5
slide, slide, slide
    Gsus2               F6*     G5
now won`t you break the spell tonight
    Gsus2          F6*  G5
all changes in the neonlight
         Gsus2          F9*  Eb/Bb
all that changes in the neon twilight tonight


- move over -

where`re you dancing witches...

*
Suggest correction
Give kudos to tab author, rate the tab!
1 2 3 4 5
comments
print report bad tab
guest
You may want to rate the tab now too:
select rating
Please do not post tabs as comments. Select "correction" instead!