Oops, an error
Loading. Please wait.

Youre Gorgeous Bass Tab

5,602 views 27 this week
no commentswrite comment
1 2 3 4 5
please rate
add to favorites
launch autoscroll
font size
0
reset
guitar tuner
Tab Pro tools
  • play this tab
  • loop segment
  • change instrument
  • show fretboard
  • metronome
Autoscroll
slow
fast
+/-
esc
set tempo
stop
Contributor
Babybird

You're gorgeous
 
Tabbed by: Mark Bryce	3rd May 2005

Email: Brycey81a@hotmail.com
Web: www.brycey.co.uk




_____________________________________________________


Tuning: EADG

Legend
	h    - hammer on
	p    - pull off
	/    - slide up
	\    - slide Down
	( )  - let ring
	


_____________________________________________________



Verse 1 


remember that tank-top you bought me?
You wrote "you're gorgeous" on it
You took me to your rented motor car
And filmed me on the bonnet


     C     F     C     G
G|---------------------------------------------------|
D|---------------------------------------------------|
A|--3-3---------3-3---------3-3---------3-3----------|
E|--------1-1---------3-3---------1-1---------3-3----|



You got me to hitch my knees up
And pulled my legs apart
You took an Instamatik camera
And pulled my sleeves around my heart



     C     F     C     G
G|---------------------------------------------------|
D|---------------------------------------------------|
A|--3-3---------3-3---------3-3---------3-3----------|
E|--------1-1---------3-3---------1-1---------3-3----|




_____________________________________________________



Chrous 


Because you're gorgeous
I'd do anything for you
Because you're gorgeous
I know you'll get me through


     
G|--------------------------|--------------------------|
D|--------------------------|--------------------------|
A|--3-3-----------3-3-------|---3-3-----------3-3------| 
E|------3--1-1--3-----5-3-3-|-5-----3--1-1--3-----5-3--|




_____________________________________________________


Verse 2


You said my clothes were sexy
You tore away my shirt
You rubbed an ice cube on my chest
Snapped me till it hurt



     
G|------0-2---2------0---------|------0-2---2------0---------|
D|----2-----3------2---3-2-3p2-|----2-----3------2---3-2-3p2-|
A|--3------------3-------------|--3------------3-------------|
E|-----------------------------|-----------------------------|



_____________________________________________________



Chrous 


Because you're gorgeous
I'd do anything for you
Because you're gorgeous
I know you'll get me through

    
 
G|--------------------------|--------------------------|
D|--------------------------|--------------------------|
A|--3-3-----------3-3-------|---3-3-----------3-3------| 
E|------3--1-1--3-----5-3-3-|-5-----3--1-1--3-----5-3--|



_____________________________________________________



Instrumental:




G|------0-2---2------0---------|------0-2---2------0---------|
D|----2-----3------2---3-2-3p2-|----2-----3------2---3-2-3p2-|
A|--3------------3-------------|--3------------3-------------|
E|-----------------------------|-----------------------------|


 bah bah bah                    bah ba ba bah bu-bu bah ba

G|------0-2---2------0---------|------0-2---2------0---------|
D|----2-----3------2---3-2-3p2-|----2-----3------2---3-2-3p2-|
A|--3------------3-------------|--3------------3-------------|
E|-----------------------------|-----------------------------|



_____________________________________________________


Verse 3


You said I wasn't cheap
You paid me twenty pounds
You promised to put me in a magazine
On every table in every lounge



     C     F     C     G
G|---------------------------------------------------|
D|---------------------------------------------------|
A|--3-----------3-----------3-----------3------------|
E|--------1-----------3-----------1-----------3------|




_____________________________________________________



Chrous

Because you're gorgeous
I'd do anything for you
Because you're gorgeous
I know you'll get me through 



G|--------------------------|--------------------------|
D|--------------------------|--------------------------|
A|--3-3-----------3-3-------|---3-3-----------3-3------| (x2)
E|------3--1-1--3-----5-3-3-|-5-----3--1-1--3-----5-3--|



****************


I know you'll get me through 
I know you'll get me through 
know you'll get me through 
know you'll get me through 


G|--------------------------|--------------------------|
D|--------------------------|--------------------------|
A|--3-3-----------3-3-------|---3-3-----------3-3------| (x2)
E|------3--1-1--3-----5-3-3-|-5-----3--1-1--3-----5-3--|


*****************



Chrous

Because you're gorgeous
I'd do anything for you
Because you're gorgeous
I know you'll get me through 


G|--------------------------|--------------------------|
D|--------------------------|--------------------------|
A|--3-3-----------3-3-------|---3-3-----------3-3------| (x2)
E|------3--1-1--3-----5-3-3-|-5-----3--1-1--3-----5-3--|



The End

By Mark Bryce
comments
We did not receive enough feedback on this tab! Please rate:
print report bad tab
1 2 3 4 5
I want to post or [tab]
guest
You may want to rate the tab now too:
select rating
Please do not post tabs as comments. Select "correction" instead!