Oops, an error
Loading. Please wait.

Hometown Hero Tab

1,671 views 9 this week
1 commentread comment
1 2 3 4 5
worth learning
x 1
add to favorites
launch autoscroll
font size
0
reset
how to read this tab
guitar tuner
Tab Pro tools
  • play this tab
  • loop segment
  • change instrument
  • show fretboard
  • metronome
Autoscroll
slow
fast
+/-
esc
set tempo
stop
Contributor
BABYLON BOMBS
HOMETOWN HERO
tabbed by T
any complaints, suggestions, death threats etc. email wasssup@hotmail.co.uk
no timings included etc.
tuning: standard (e B G D A E)

INTRO
lead      second time, replace this:       with this:
e-0-0-0-00-0-0-0-33--15-------------15--------------|-----------------|
B-3/5-5-53-3/5-5-55---15--------------15------------|-----------------|
G-----------------------14b16r14-12-----14b16r14-12-|-12--------------| X2
D---------------------------------------------------|---12------------|
A---------------------------------------------------|-----12b14r12-10-|
E---------------------------------------------------|-----------------|
rhythm
e--------------------|
B--------------------|
G-9997991212---------|
D-9997991212-55-555--|  X2
A-7775771010-55-555--|
E------------3303330-|

VERSE
e------------------------------------------|
B------------------------------------------|
G-----------555----------555-9---5---9---5-| X2
D-55555555555555555555555555-9---5---9---5-|
A-55555555553335555555555333-7---3---7---3-|
E-3333333333---3333333333------------------|
pm .........
segway into chorus:
e------|
B------|
G-7777-|
D-7777-|
A-5555-|
E------|

CHORUS
e----------------------------------------|
B----------------------------------------|
G-------55777777-------9999----55555555--| X2
D-555555557777777-67-6-99995555555555555-|
A-555555335555555/45/4-77775555333333205-|
E-333333-------------------3333--------3-|

RIFF
lead      
e-0-0-0-00-0-0-0-33--15-------------15--------------|
B-3/5-5-53-3/5-5-55---15--------------15------------|
G-----------------------14b16r14-12-----14b16r14-12-|
D---------------------------------------------------|
A---------------------------------------------------|
E---------------------------------------------------|
rhythm
e--------------------|
B--------------------|
G-9997991212---------|
D-9997991212-55-555--|
A-7775771010-55-555--|
E------------3303330-|

VERSE
e------------------------------------------|
B------------------------------------------|
G-----------555----------555-9---5---9---5-| X2
D-55555555555555555555555555-9---5---9---5-|
A-55555555553335555555555333-7---3---7---3-|
E-3333333333---3333333333------------------|
pm .........
segway into chorus:
e------|
B------|
G-7777-|
D-7777-|
A-5555-|
E------|


CHORUS
e----------------------------------------|
B----------------------------------------|
G-------55777777-------9999----55555555--| X2
D-555555557777777-67-6-99995555555555555-|
A-555555335555555/45/4-77775555333333205-|
E-333333-------------------3333--------3-|

SOLO
lead
e------15------12---14---15---17---15-----------------------|
B-15b17--15b17-15b1717b1918b2020b22--15------------------13-|
G--------------------------------------1412-12---------12---|
D---------------------------------------------1514-1415-----|
A-----------------------------------------------------------|
E-----------------------------------------------------------|

e------------------------------8--10-8---5b7r5--|
B-13b15-15-15-15-15r13----------------8-8-----8-|
G---------------------14-12-7/9-11--9--7--------|
D-----------------------------------------------|
A-----------------------------------------------|
E-----------------------------------------------|

e-14b15r1412--------14b15r1412--12-----8-8-----8-8-----8-8---------|
B-----------12121212----------12-------8-8-----8-8-----8-8---------|
G---------------------------------11/12---10b12---10b12---12-10----|
D---------------------------------------------------------------10-|
A------------------------------------------------------------------|
E------------------------------------------------------------------|

e------15-----151515-----15-----151515-|
B------15-----151515-----15-----151515-|
G-16h17--16h17------16h17--16h17-------|
D--------------------------------------|
A--------------------------------------|
E--------------------------------------|

e-17b19-17-15-14h15p14---------------------------|
B---------------------15-------------------------|
G-----------------------17p16--17p16-------------|
D----------------------------17-----17--------17-|
A-------------------------------------17h18h19---|
E------------------------------------------------|
rhythm
e----------------------------------|
B----------------------------------|
G-9999999955555555--------55555555-| X2
D-99999999555555555555555555555555-|
A-77777777333333335555555533333333-|
E-----------------33333333---------|

BUILD UP
e-------------------------------------------|
B-------------------------------------------|
G--------------------------5555555577777777-|
D-5--------55555555555555555555555577777777-|
A-5--------55555555555555553333333355555555-|
E-3--------3333333333333333-----------------|

CHORUS
e----------------------------------------|
B----------------------------------------|
G-------55777777-------9999----55555555--| X2
D-555555557777777-67-6-99995555555555555-|
A-555555335555555/45/4-77775555333333205-|
E-333333-------------------3333--------3-|

comments
We did not receive enough feedback on this tab! Please rate:
print report bad tab
1 2 3 4 5
1 comment total.
0 reply
cteaster wrote on June 27 2013, 10:52 am

Great tab! Do you have anything else from Babylon's Burning?

I want to post or [tab]
guest
You may want to rate the tab now too:
select rating
Please do not post tabs as comments. Select "correction" instead!