Oops, an error
Loading. Please wait.

Fall From Grace Tab

9,120 views 39 this week
3 commentsread comments
1 2 3 4 5
excellent!
x 6
add to favorites
launch autoscroll
font size
0
reset
how to read this tab
guitar tuner
Tab Pro tools
  • play this tab
  • loop segment
  • change instrument
  • show fretboard
  • metronome
Autoscroll
slow
fast
+/-
esc
set tempo
stop
Contributor
Difficulty
intermediate
-------------------------------------------------------------------------------
                             Fall From Grace - Babyshambles
-------------------------------------------------------------------------------
Tabbed by: lfgtimmer

Tuning: standard

Chords used:
   E  C#m  G#m B  A  Am  G# F#m A?  B?
e|-x--4----4---x--5--5---4--2--(5)-(7)-----------------|
B|-9--5----4---4--5--5---4--2---7---9------------------|
G|-9--6----4---4--6--5---5--2---6---8------------------|
D|-9--6----6---4--7--7---6--4---7---9------------------|
A|-7--4----6---2--7--7---6--4---x---x------------------|
E|-x--x----4---x--5--5---4--2---x---x------------------|

Lead parts:

Riff 1
e|------------------------|
B|-9-9-9h10p9----9--------|
G|------------11----------|
D|------------------------|
A|------------------------|
E|------------------------|

Riff 2 
This riff is played during the chorus
e|----------------------------------|
B|-9r-------------------------------|
G|-11b13br11-9-----9----9-----------|Bend the G string on the 11 fret to 
D|-------------9h11-9h11-9h11-------|13, strum B and G string again and 
A|----------------------------------|release the G string back to 11
E|----------------------------------|

Riff 3
When the G#m and B are played in the chorus the lead plays the following riff
e|--4--6--7r---7--9—11r-------------|
B|----------------------------------|
G|-4--6--8r---8--9—11r--------------|
D|----------------------------------|
A|----------------------------------|
E|----------------------------------|

Riff 4:
e|-------------|
B|-------------|
G|-------------|
D|-------------|
A|----7---7----|
E|-7h9-7h9-7h9-|

Riff 5
e|--------------|
B|--------------|
G|--------------|
D|--------------|
A|-9s11-9s7-4---|
E|--------------|


Intro:
E C#m x2

Lead guitar plays Riff 1 x4

Verse 1:
                           E
I have got one thing on my mind
             C#m
I just can't shake it
                E                C#m
You've got your reasons I've got mine
            E
mm when the dam bursts
        C#m
I can't take it
                E
We'll drown our sorrows
        C#m
Here it comes look here it comes


Chorus: 
Lead plays Riff 2 twice and Riff 3 once over the G#m and B chords

       E
With my head hanging high 
       C#m
and my hands untied
       E
On the horizon there's a little 
         C#m
piece of land I aspire
      
       E
Can we go some place 
           C#m
where they know my face
       E
Gather round now, bare witness
      C#m
to my Fall From Grace
E     C#m
Aaahh

G#m   B
Aaahh


Rhythm guitar goes back to E C#m and before the start of the second verse lead plays Riff 4 x4

Verse 2:
Lead plays Riff 1 during the whole verse

                     E
If I had to tell the truth
         C#m
Would be lying
     E               C#m
If I said that I was wrong
          E
to be the right man
       C#m
in the wrong place
           E                 C#m
its on the right side of the road

here it comes 


Chorus:
Riff 2 is played twice

         E
While my head hangs high 
       C#m
and my hands untied
       E
On the horizon there's a little 
         C#m
piece of land I aspire
       E
Can we go some place 
                 C#m
where they don't know my face
       E
Gather round, bare witness
      C#m
to my Fall From Grace
E     C#m
Aaahh

G#m   B     (Riff 3 is played over the G#m and B chords)
Aaahh
E     C#m
Ooooh
G#m   B
Ooooh

Bridge: 
A  Am

   E       G#            C#m  
oh darling don't need to go
F#m  E        G#        C#m
into what you think you know
F#m  E           G#                C#m
ahah if only you had the chance to grow
F#m  A?   B?  E
into what you know

Instrumental:
E C#m x2

Verse 3:
(Only drums and ghost notes on guitar)

So take it from the man

who served a sorrow

who spilt the salt into the sea

who stole the whisky from the bottle

who sold his soul to destiny 

look here it comes


Chorus: 
Riff 2 is played
         E       
While my head hanging high 
       C#m     
and my hands untied
       E        
On the horizon there's a little 
         C#m
piece of land I aspire
       E
Can we go some place 
           C#m
where they know my face
       E
Gather round bare witness
      C#m
to my Fall From Grace
        E
With my head hanging high 
       C#m
and my hands untied
E
Look see a little 
         C#m
piece of land I aspire
       E
Can we go some place 
           C#m
where they know my face
       E
Gather round bare witness
      C#m
to my Fall From Grace

Outro:
E C#m G#m B x2

At the end the lead plays Riff 5
e|--------------|
B|--------------|
G|--------------|
D|--------------|
A|-9s11-9s7-4---|
E|--------------|
comments
print report bad tab
3 comments total.
+1 reply
iimalteaserii wrote on October 6 2014, 03:59 pm

This is great!

0 reply
lfgtimmer wrote on October 6 2014, 05:12 pm

Thanks, I'm glad you like it

0 reply
mortfor wrote on January 16 2015, 08:16 am, edited on January 18 2015, 01:04 pm

The Shambles do the song three frets higher, when they´re playing live

I want to post or [tab]
guest
You may want to rate the tab now too:
select rating
Please do not post tabs as comments. Select "correction" instead!