Oops, an error
Loading. Please wait.

Fireman tab

version 1
version 1

Whole song

2,036 views 3 this week
3 commentsread comments
1 2 3 4 5
2 more votes to show rating
add to favorites
×
Save as Personal and add changes to this tab that will be seen only by you. Learn more ›
×
You can save this tab as Personal to edit and correct it or add notes. All changes will be seen only by you. Learn more »
launch autoscroll
font size
0
reset
how to read this tab
guitar tuner
edit
Autoscroll
slow
fast
+/-
esc
set tempo
stop
Author
Difficulty
-------------------------------------------------------------------------------
                             FIREMAN - BABYSHAMBLES
-------------------------------------------------------------------------------
Tabbed by: lfgtimmer

Tuning:standard


Chords used
   D  A  Bm G  E G#5 A5 B5
e|-x--5--7--5--x--------------------------------|
B|-7--5--7--5--9--------------------------------|
G|-7--6--7--4--9--------------------------------|
D|-7--7--9--5--9--6--7--9-----------------------|
A|-5--7--9--5--7--6--7--9-----------------------|
E|-x--5--7--3--x--4--5--7-----------------------|

Intro:

    D            C       D     C D
e|-----------------------------------------------|
B|-----------------------------------------------|
G|--11-11-11-11--8-8-8-8-11-11-8-11--------------| play 4x
D|--12-12-12-12--9-9-9-9-12-12-9-12--------------|
A|-----------------------------------------------|
E|-----------------------------------------------|

Verse:
I really don’t understand shit of what he’s saying, but anyway these are the chords
D A Bm Bm x3 G A

Intro:
Play twice

Verse:
D A Bm Bm x3 G A

Chorus:
E                G#5 A5 B5 x4
I am the fireman…

Intro:
Play twice

Verse:
D A Bm Bm x3 G A

Chorus:
Play chorus until the end of the song, end the song with a few down strokes on E.

            
            
Suggest correction
Creating personal tab
Creating personal tab
You can edit any tab online and save it as your Personal.

You can edit, replace or remove any tab part or add personal notes – all changes will be seen only by you.

Personal tabs can be accessed anytime from any device, even offline.
Learn more »
Give kudos to tab author, rate the tab!
1 2 3 4 5
comments
print report bad tab
3 comments total.
0 reply
lfgtimmer 256 Sep 11, 2013 06:15 AM

The 8 and 9 on the G and D string should be 9 and 10.

0 reply
Lord.Georgie.In 117 Nov 24, 2013 06:08 AM

e|-----------------------------------------------|
B|--12-12-12-12--9-9-9-9-12-12-9-12--------------|
G|--11-11-11-11--8-8-8-8-11-11-8-11--------------|
D|--12-12-12-12--8-8-8-8-12-12-8-12--------------|
A|-----------------------------------------------|
E|-----------------------------------------------|

to me it sounds more like this

+1 reply
Deckasef 57 Oct 09, 2014 03:27 PM

Sounds like this to me

e|-----------------------------------------------|
B|--12-12-12-12--10-10-10-10-12-12-10-12--------------|
G|--11-11-11-11--11-11-11-11-11-11-11-11--------------|
D|--12-12-12-12--12-12-12-12-12-12-12-12--------------|
A|-----------------------------------------------|
E|-----------------------------------------------|

guest
You may want to rate the tab now too:
select rating
Wanna post a correction for this tab? Suggest correction