Oops, an error
Loading. Please wait.

French Dog Blues chords

version 1
version 1

Whole song

Interactive

5,728 views 1 this week
2 commentsread comments
1 2 3 4 5
1 last vote to show rating
add to favorites
×
Save as Personal and add changes to this tab that will be seen only by you. Learn more ›
×
You can save this tab as Personal to edit and correct it or add notes. All changes will be seen only by you. Learn more »
launch autoscroll
font size
0
reset
transpose
0
reset
simplify chords
display chords
guitar tuner
edit
Autoscroll
slow
fast
+/-
esc
set tempo
stop
Strumming
There is no strumming pattern for this song yet. and get +5 IQ
French Dog Blues From the leeds bootleg

Tabbed by Krishna (Heethmo)

Bass Intro

A|-5-0---5-0---5-0---5-7/9\7--|
E|-----7-----7-----7----------|

Intro guitar
e|-----------------....play for a while 
b|---10-------10-... 
g|---10-------10-.... 
d|---0----12--0--.... 
a|-----------------.... 
e|------------------...... 

______F________________D 
e|----------------------------- 
b|--10-10-10-10--10---10-- 
g|--12b12b12b12b12---10-- repeat for a while 
d|----------------------------- this goes over chords for chorus aswell 
a|---------------------------- 
e|------------------------------ 

 
D 
today is the last post in anarchy 
B 
went across to the park to see, 
F#m(9th fret) B F#,m 
across the road for freee 
G___A___ 
................ 


 
D 
oh no it washes over you 
B 
They call it the french dog blues 

F#m B F#M G A 


 
F______________D 
Its away now i know 

Middle 
D E G A 

See you, you never pay yourself, thats what you pay the shrink for.... 

then hold A 

Any question just ask 
Suggest correction
Creating personal tab
Creating personal tab
You can edit any tab online and save it as your Personal.

You can edit, replace or remove any tab part or add personal notes – all changes will be seen only by you.

Personal tabs can be accessed anytime from any device, even offline.
Learn more »
Give kudos to tab author, rate the tab!
1 2 3 4 5
comments
print report bad tab
2 comments total.
0 reply
stuart_cowan90 235 Feb 25, 2007 07:43 AM

The bass intro is actually. . .

g|------------------------------------------------------------------------------|
d|-10------10-------10-------10----------10--10/14-10--10/14-12-14-12-14-14^r12-|
a|---10-12-----10-12---10-12----10-12-10---10--------10-------------------------|
e|------------------------------------------------------------------------------|

0 reply
nilsus 173 Oct 11, 2007 01:07 PM

non accurate.. chorus is totally off..

guest
Wanna post a correction for this tab? Suggest correction