Oops, an error
Loading. Please wait.

Yes Sir I Can Boogie bass

by Baccara
106 views 12 this week
no commentswrite comment
1 2 3 4 5
2 more votes to show rating
add to favorites
×
Save as Personal and add changes to this tab that will be seen only by you. Learn more ›
×
You can save this tab as Personal to edit and correct it or add notes. All changes will be seen only by you. Learn more »
launch autoscroll
font size
0
reset
guitar tuner
edit
Autoscroll
slow
fast
+/-
esc
set tempo
stop
Artist: Baccara
Song: Yes Sir I can Boogie
Tuning - Standard
tabbed by electricbunny

[Intro]                                                              
G|--------------------------------|--------------------------------|
D|--------------------------------|--------------------------------|
A|--------------------------------|--------2---------------0-------|
E|2-------------------------------|--------------------------------|
 
G|--------------------------------|--------------------------------|
D|--------------------------------|--------------------------------|
A|--------------------------------|------------------------0-------|
E|--------4-----------------------|0-------------------------------|
 
G|--------------------------------|--------------------------------|
D|--------------------------------|--------------------------------|
A|--------------------------------|--------------------------------|
E|--------------------------------|--------------------------------|
 
G|--------------------------------|--------------------------------|
D|0---0-----------0---0-----------|0---0-----------0---0-----------|
A|--------------------------------|--------------------------------|
E|--------------------------------|--------------------------------|
 
G|--------------------------------|--------------------------------|
D|0---0-----------0---0-----------|4---4-----------4---4-----------|
A|--------------------------------|------------------------5-------|
E|--------------------------------|--------------------------------|
 
G|--------------------------------|--------------------------------|
D|--------------------------------|--------------------------------|  
A|2---2-----------2-------0-------|--------------------------------|
E|--------------------------------|4-----------3---0-----------3---|
 
G|--------------------------------|--------------------------------|
D|--------------------------------|4---4---------4---4-------------|
A|0---0-----------0---0-----------|------------------------4-------|
E|--------------------------------|--------------------------------|
 
G|--------------------------------|--------------------------------|
D|--------------------------------|--------------------4-----------|
A|2---2---------0-2---2-----------|2---2-----------2-------2-------|
E|--------------------------------|--------------------------------|
 
[Verse]                                                             
G|--------------------------------|--------------------------------|
D|0---0-----------0---0-----------|4---4-----------4---4-----------|
A|--------------------------------|------------------------5-------|
E|--------------------------------|--------------------------------|
 
G|--------------------------------|--------------------------------|
D|--------------------------------|--------------------------------|
A|2---2-----------2-------0-------|--------------------------------|
E|--------------------------------|4-------4---3---0-------1---3---|
 
G|--------------------------------|--------------------------------|
D|----------------------------2---|------------------------2-------|
A|0---0-----------0---0-----------|0---0-----------0---0-----------|
E|--------------------------------|--------------------------------|
 
G|--------------------------------|--------------------------------|
D|0---0-----------0---0-----------|4---4-----------4---------------|
A|--------------------------------|--------------------------------|
E|--------------------------------|--------------------------------|
 
G|--------------------------------|--------------------------------|
D|0---0-----------0---0-----------|4---4-----------4---4-----------|
A|--------------------------------|------------------------5-------|
E|--------------------------------|--------------------------------|
 
G|--------------------------------|--------------------------------|
D|--------------------------------|--------------------------------|
A|2---2-----------2-------0-------|--------------------------------|
E|--------------------------------|4-----------3---0-----------3---|
 
G|--------------------------------|--------------------------------|
D|--------------------------------|--------------------------------|
A|0---0-----------0---0-----------|0---0-----------0---0---1-------|
E|--------------------------------|--------------------------------|
 
G|--------------------------------|----------------3---3-----------|
D|--------------------------------|------------------------4-------|
A|2---2---------0-2---2-----------|2---2---------------------------|
E|--------------------------------|--------------------------------|
 
[Chorus]                                                            
G|--------------------------------|------------4-4-----------------|
D|0---0-----------0-------0-------|4---4-----------4---4-----------|
A|--------------------------------|------------------------5-------|
E|--------------------------------|--------------------------------|
 
G|----------------0---------------|--------------------------------|
D|--------------------------------|------------------------0-------|
A|--------------------------------|--------------------2-----------|
E|3-------------------------------|3---3-----------3---------------|
 
G|--------------------------------|--------------------------------|
D|0---0-----------0---0-----------|4---4-----------4---4-----------|
A|--------------2-----------------|------------------------4-------|
E|--------------------------------|--------------------------------|
 
G|----------------4---------------|----------------4---------------|
D|------------4-----------4-------|------------4-----4-----5-------|
A|2-------2-------------------2---|2-----2-------------------------|
E|--------------------------------|--------------------------------|
 
G|--------------------------------|------------4-4-----------------|
D|0---0-----------0-------0-------|4---4-----------4---4-----------|
A|--------------------------------|------------------------5-------|
E|--------------------------------|--------------------------------|
 
G|----------------0---------------|--------------------------------|
D|--------------------------------|------------------------0-------|
A|--------------------------------|--------------------2-----------|
E|3-------------------------------|3---3-----------3---------------|
 
G|--------------------------------|--------------------------------|
D|0---0-----------0---0-----------|4---4-----------4---4-----------|
A|--------------2-----------------|------------------------4-------|
E|--------------------------------|--------------------------------|
 
G|----------------4---------------|----------------4---------------|
D|------------4-----------4-------|------------4-----4-----5-------|
A|2-------2-------------------2---|2-----2-------------------------|
E|--------------------------------|--------------------------------|
 
[Verse]                                                             
G|--------------------------------|--------------------------------|
D|0---0-----------0---0-----------|4---4-----------4---4-----------|
A|--------------------------------|------------------------5-------|
E|--------------------------------|--------------------------------|
 
G|--------------------------------|--------------------------------|
D|--------------------------------|--------------------------------|
A|2---2-----------2-------0-------|--------------------------------|
E|--------------------------------|4-------4---3---0-------1---3---|
 
G|--------------------------------|--------------------------------|
D|----------------------------2---|------------------------2-------|
A|0---0-----------0---0-----------|0---0-----------0---0-----------|
E|--------------------------------|--------------------------------|
 
G|--------------------------------|--------------------------------|
D|0---0-----------0---0-----------|4---4-----------4---------------|
A|--------------------------------|--------------------------------|
E|--------------------------------|--------------------------------|
 
G|--------------------------------|--------------------------------|
D|0---0-----------0---0-----------|4---4-----------4---4-----------|
A|--------------------------------|------------------------5-------|
E|--------------------------------|--------------------------------|
 
G|--------------------------------|--------------------------------|
D|--------------------------------|--------------------------------|
A|2---2-----------2-------0-------|--------------------------------|
E|--------------------------------|4-------3---3---0-------3---3---|
 
G|--------------------------------|--------------------------------|
D|--------------------------------|--------------------------------|
A|0---0-----------0---0-----------|0---0-----------0---0---1-------|
E|--------------------------------|--------------------------------|
 
G|--------------------------------|----------------3---3-----------|
D|--------------------------------|------------------------4-------|
A|2---2---------0-2---2-----------|2---2---------------------------|
E|--------------------------------|--------------------------------|
 
[Chorus]                                                            
G|--------------------------------|------------4-4-----------------|
D|0---0-----------0-------0-------|4---4-----------4---4-----------|
A|--------------------------------|------------------------5-------|
E|--------------------------------|--------------------------------|
 
G|----------------0---------------|--------------------------------|
D|--------------------------------|------------------------0-------|
A|--------------------------------|--------------------2-----------|
E|3-------------------------------|3---3-----------3---------------|
 
G|--------------------------------|--------------------------------|
D|0---0-----------0---0-----------|4---4-----------4---4-----------|
A|--------------2-----------------|------------------------4-------|
E|--------------------------------|--------------------------------|
 
G|----------------4---------------|----------------4---------------|
D|------------4-----------4-------|------------4-----4-----5-------|
A|2-------2-------------------2---|2-----2-------------------------|
E|--------------------------------|--------------------------------|
 
G|--------------------------------|------------4-4-----------------|
D|0---0-----------0-------0-------|4---4-----------4---4-----------|
A|--------------------------------|------------------------5-------|
E|--------------------------------|--------------------------------|
 
G|----------------0---------------|--------------------------------|
D|--------------------------------|------------------------0-------|
A|--------------------------------|--------------------2-----------|
E|3-------------------------------|3---3-----------3---------------|
 
G|--------------------------------|--------------------------------|
D|0---0-----------0---0-----------|4---4-----------4---4-----------|
A|--------------2-----------------|------------------------4-------|
E|--------------------------------|--------------------------------|
 
G|----------------4---------------|----------------4---------------|
D|------------4-----------4-------|------------4-----4-----5-------|
A|2-------2-------------------2---|2-----2-------------------------|
E|--------------------------------|--------------------------------|
 
G|--------------------------------|------------4-4-----------------|
D|0---0-----------0-------0-------|4---4-----------4---4-----------|
A|--------------------------------|------------------------5-------|
E|--------------------------------|--------------------------------|
 
G|----------------0---------------|--------------------------------|
D|--------------------------------|------------------------0-------|
A|--------------------------------|--------------------2-----------|
E|3-------------------------------|3---3-----------3---------------|
 
G|--------------------------------|--------------------------------|
D|0---0-----------0---0-----------|4---4-----------4---4-----------|
A|--------------2-----------------|------------------------4-------|
E|--------------------------------|--------------------------------|
 
G|----------------4---------------|----------------4---------------|
D|------------4-----------4-------|------------4-----4-----5-------|
A|2-------2-------------------2---|2-----2-------------------------|
E|--------------------------------|--------------------------------|
 
                                                                    
[Instrumental]                                                      
G|--------------------------------|--------------------------------|
D|0---0-----------0---0-----------|4---4-----------4---4-----------|
A|--------------------------------|------------------------5-------|
E|--------------------------------|--------------------------------|
 
G|--------------------------------|--------------------------------|
D|--------------------------------|--------------------------------|
A|2---2-----------2-------0-------|--------------------------------|
E|--------------------------------|4-------3---3---0-------3---3---|
 
G|--------------------------------|--------------------------------|
D|--------------------------------|--------------------------------|
A|0---0-----------0---0-----------|0---0-----------0---0---1-------|
E|--------------------------------|--------------------------------|
 
G|--------------------------------|----------------3---3-----------|
D|--------------------------------|------------------------4-------|
A|2---2---------0-2---2-----------|2---2---------------------------|
E|--------------------------------|--------------------------------|
 
[Chorus]                                                             
G|--------------------------------|------------4-4-----------------|
D|0---0-----------0-------0-------|4---4-----------4---4-----------|
A|--------------------------------|------------------------5-------|
E|--------------------------------|--------------------------------|
 
G|----------------0---------------|--------------------------------|
D|--------------------------------|------------------------0-------|
A|--------------------------------|--------------------2-----------|
E|3-------------------------------|3---3-----------3---------------|
 
G|--------------------------------|--------------------------------|
D|0---0-----------0---0-----------|4---4-----------4---4-----------|
A|--------------2-----------------|------------------------4-------|
E|--------------------------------|--------------------------------|
 
G|----------------4---------------|----------------4---------------|
D|------------4-----------4-------|------------4-----4-----5-------|
A|2-------2-------------------2---|2-----2-------------------------|
E|--------------------------------|--------------------------------|
 
G|--------------------------------|------------4-4-----------------|
D|0---0-----------0-------0-------|4---4-----------4---4-----------|
A|--------------------------------|------------------------5-------|
E|--------------------------------|--------------------------------|
 
G|----------------0---------------|--------------------------------|
D|--------------------------------|------------------------0-------|
A|--------------------------------|--------------------2-----------|
E|3-------------------------------|3---3-----------3---------------|
 
G|--------------------------------|--------------------------------|
D|0---0-----------0---0-----------|4---4-----------4---4-----------|
A|--------------2-----------------|------------------------4-------|
E|--------------------------------|--------------------------------|
 
G|----------------4---------------|----------------4---------------|
D|------------4-----------4-------|------------4-----4-----5-------|
A|2-------2-------------------2---|2-----2-------------------------|
E|--------------------------------|--------------------------------|
 
[Outro]                                                             
G|--------------------------------|------------4-4-----------------|
D|0---0-----------0-------0-------|4---4-----------4---4-----------|
A|--------------------------------|------------------------5-------|
E|--------------------------------|--------------------------------|
 
G|----------------0---------------|--------------------------------|
D|--------------------------------|------------------------0-------|
A|--------------------------------|--------------------2-----------|
E|3-------------------------------|3---3-----------3---------------|
 
G|--------------------------------|--------------------------------|
D|0---0-----------0---0-----------|4---4-----------4---4-----------|
A|--------------2-----------------|------------------------4-------|
E|--------------------------------|--------------------------------|
 
G|----------------4---------------|----------------4---------------|
D|------------4-----------4-------|------------4-----4-----5-------|
A|2-------2-------------------2---|2-----2-------------------------|
E|--------------------------------|--------------------------------|
 
G|--------------------------------|------------4-4-----------------|
D|0---0-----------0-------0-------|4---4-----------4---4-----------|
A|--------------------------------|------------------------5-------|
E|--------------------------------|--------------------------------|
 
G|----------------0---------------|--------------------------------|
D|--------------------------------|------------------------0-------|
A|--------------------------------|--------------------2-----------|
E|3-------------------------------|3---3-----------3---------------|
 
G|--------------------------------|--------------------------------|
D|0---0-----------0---0-----------|4---4-----------4---4-----------|
A|--------------2-----------------|------------------------4-------|
E|--------------------------------|--------------------------------|
 
G|----------------4---------------|----------------4---------------|
D|------------4-----------4-------|------------4-----4-----5-------|
A|2-------2-------------------2---|2-----2-------------------------|
E|--------------------------------|--------------------------------|

            
            
Suggest correction
Creating personal tab
Creating personal tab
You can edit any tab online and save it as your Personal.

You can edit, replace or remove any tab part or add personal notes – all changes will be seen only by you.

Personal tabs can be accessed anytime from any device, even offline.
Learn more »
Give kudos to tab author, rate the tab!
1 2 3 4 5
comments
print report bad tab
guest
You may want to rate the tab now too:
select rating
Wanna post a correction for this tab? Suggest correction