Oops, an error
Loading. Please wait.

Takin Care Of Business Bass Tab

version 4
version 4

Interactive

4,748 views 9 this week
no commentswrite comment
1 2 3 4 5
excellent!
x 3
add to favorites
launch autoscroll
font size
0
reset
guitar tuner
Tab Pro tools
  • play this tab
  • loop segment
  • change instrument
  • show fretboard
  • metronome
×
Best way to learn
"Takin Care Of Business"
Autoscroll
slow
fast
+/-
esc
set tempo
stop
Contributor
Difficulty
novice
This tab has a few of my own fills and progressions.

Tabbed by: BASSteve

Tuning: EADG

Time signature: 4/4

r = rest (listen for duration)
||= measure gets repeated (see number of times above measure, e.g. 4x)


*My tabs are meant to be read in conjunction with listening to the song.
In other words, there are no specific notations to account for note/rest duration. 
However, you will find that I've made an attempt to strategically space the notes 
and rests within their respective measures in order to represent the appropriate 
durations.



INTRO 

G|--------------------------------|--------------------------------|
D|--------------------------------|--------------------------------|
A|r-------------------------------|r-------------------------------|
E|--------------------------------|--------------------------------|



|--------------------------------|----------------5---------------|
|--------------------------------|--------5---7-------7---5-------|
|r-------------------------------|3---7-----------------------7---|
|--------------------------------|--------------------------------|


  3x
||--------------------------------|--------------------------------||
||--------------------------------|--------------------------------||
||3---3---------------------------|1---1---------------------------||
||--------5---5---3---3---5---3---|--------3---3---1---1---3---1---||



||--------------------------------|--------------------------------||
||--------------------------------|--------------------------------||
||--------0---0---1---1---2---0---|3---3---------------------------||
||1---1---------------------------|--------5---5---3---3---5---3---||



VERSE

|--------------------------------|--------------------------------|
|--------------------------------|--------------------------------|
|3---3---------------------------|1---1---------------------------|
|--------5---5---3---3---5---3---|--------3---3---1---1---3---1---|



|--------------------------------|--------------------------------|
|--------------------------------|--------------------------------|
|--------0---0---1---1---2---0---|3---3---------------------------|
|1---1---------------------------|--------5---5---3---3---5---3---|



|--------------------------------|--------------------------------|
|--------------------------------|--------------------------------|
|3---3---------------------------|1---1---------------------------|
|--------5---5---3---3---5---3---|--------3---3---1---1---3---1---|



|--------------------------------|----------------------------5---|
|--------------------------------|----------------5---5---7-------|
|--------0---0---1---1---2---0---|3---3---7---7-------------------|
|1---1---------------------------|--------------------------------|


                 
|5---5---------------------------|--------------------------------|
|--------7---7---5---5---7---5---|--------------------------------|
|--------------------------------|1---1---------------------------|
|--------------------------------|--------3---3---1---1---3---1---|



|--------------------------------|--------------------------------|
|--------------------------------|--------------------------------|
|--------0---0---1---1---2---0---|3---3---------------------------|
|1---1---------------------------|--------5---5---3---3---5---3---|



|--------------------------------|--------------------------------|
|--------------------------------|--------------------------------|
|3---3---------------------------|1---1---------------------------|
|--------5---5---3---3---5---3---|--------3---3---1---1---3---1---|



|--------------------------------|--------------------------------|
|3---3---------------------------|--------------------------------|
|--------0---0---1---1---5-------|3---3---------------------------|
|----------------------------3---|--------5---5---3---3---5---3---|



CHORUS 1

  2x
||--------------------------------|--------------------------------|
||--------------------------------|--------------------------------|
||3---3---------------------------|1---1---------------------------|
||--------5---5---3---3---5---3---|--------3---3---1---1---3---1---|



|--------------------------------|--------------------------------||
|--------------------------------|--------------------------------||
|--------0---0---1---1---2---0---|3---3---------------------------||
|1---1---------------------------|--------5---5---3---3---5---3---||



|--------------------------------|--------------------------------|
|--------------------------------|--------------------------------|
|3---3---------------------------|1---1---------------------------|
|--------5---5---3---3---5---3---|--------3---3---1---1---3---1---|



|--------------------------------|----------------------------5---|
|--------------------------------|----------------5---5---7-------|
|--------0---0---1---1---2---0---|3---3---7---7-------------------|
|1---1---------------------------|--------------------------------|


                 
|5---5---------------------------|--------------------------------|
|--------7---7---5---5---7---5---|--------------------------------|
|--------------------------------|1---1---------------------------|
|--------------------------------|--------3---3---1---1---3---1---|



|--------------------------------|--------------------------------|
|--------------------------------|--------------------------------|
|--------0---0---1---1---2---0---|3---3---------------------------|
|1---1---------------------------|--------5---5---3---3---5---3---|



[VERSE]


[CHORUS 1]



INTERLUDE

|--------------------------------|--------------------------------|
|--------------------------------|--------------------------------|
|3---r---------------------------|r-------------------------------|
|--------------------------------|--------------------------------|


  2x
||--------------------------------|--------------------------------||
||--------------------------------|--------------------------------||
||r-------------------------------|r-------------------------------||
||--------------------------------|--------------------------------||



|--------------------------------|--------------------------------|
|--------------------------------|--------------------------------|
|r-------------------------------|----------------------------3---|
|--------------------------------|--------------------------------|



|--------------------------------|--------------------------------|
|----3---3---3---r-----------1---|1-------------------------------|
|3-------------------------------|----1---1---1---r-----------3---|
|--------------------------------|--------------------------------|



|--------------------------------|--------------------------------|
|----3---3---3---r-----------1---|1-------------------------------|
|3-------------------------------|----1---1---1---r---------------|
|--------------------------------|--------------------------------|



|--------------------------------|--------------------------------|
|--------------------------------|--------------------------------|
|3---3---------------------------|1---1---------------------------|
|--------5---5---3---3---5---3---|--------3---3---1---1---3---1---|



|--------------------------------|--------------------------------|
|--------------------------------|--------------------------------|
|--------0---0---1---1---2---0---|3---3---------------------------|
|1---1---------------------------|--------5---5---3---3---5---3---|



|5---5---------------------------|3---3---------------------------|
|--------7---7---5---5---7---5---|--------5---5---3---3---5---3---|
|--------------------------------|--------------------------------|
|--------------------------------|--------------------------------|



|--------------------------------|--------------------------------|
|3---3-------------------5-------|--------------------------------|
|--------0---0---1---1-------5---|3---3---------------------------|
|--------------------------------|--------5---5---3---3---5---3---|



[VERSE]



CHORUS 2

|--------------------------------|--------------------------------|
|--------------------------------|--------------------------------|
|3---3---------------------------|1---1---------------------------|
|--------5---5---3---3---5---3---|--------3---3---1---1---3---1---|



|--------------------------------|----------------------------5---|
|--------------------------------|----------------5---5---7-------|
|--------0---0---1---1---2---0---|3---3---7---7-------------------|
|1---1---------------------------|--------------------------------|


                 
|5---5---------------------------|--------------------------------|
|--------7---7---5---5---7---5---|--------------------------------|
|--------------------------------|1---1---------------------------|
|--------------------------------|--------3---3---1---1---3---1---|



|--------------------------------|--------------------------------|
|--------------------------------|--------------------------------|
|--------0---0---1---1---2---0---|3---3---------------------------|
|1---1---------------------------|--------5---5---3---3---5---3---|



INTERLUDE 2

|--------------------------------|--------------------------------|
|--------------------------------|--------------------------------|
|3---r---------------------------|--------------------------------|
|--------------------------------|--------------------------------|


  4x
||--------------------------------|--------------------------------||
||--------------------------------|--------------------------------||
||r-------------------------------|r-------------------------------||
||--------------------------------|--------------------------------||



|--------------------------------|--------------------------------|
|--------------------------------|--------------------------------|
|r-------------------------------|----------------------------3---|
|--------------------------------|--------------------------------|



|--------------------------------|--------------------------------|
|--------------------------------|----------------------------3---|
|3---r-----------------------1---|1---r---------------------------|
|--------------------------------|--------------------------------|



|--------------------------------|--------------------------------|
|3---r---------------------------|--------------------------------|
|----------------------------3---|3---r-----------------------3---|
|--------------------------------|--------------------------------|



|--------------------------------|--------------------------------|
|--------------------------------|----------------------------3---|
|3---r-----------------------1---|1---r---------------------------|
|--------------------------------|--------------------------------|



|--------------------------------|--------------------------------|
|3---r---------------------------|--------------------------------|
|----------------------------3---|3---r---------------------------|
|--------------------------------|--------------------------------|



OUTRO 

  To fade
||--------------------------------|--------------------------------|
||--------------------------------|--------------------------------|
||3---3---------------------------|1---1---------------------------|
||--------5---5---3---3---5---3---|--------3---3---1---1---3---1---|



|--------------------------------|--------------------------------||
|--------------------------------|--------------------------------||
|--------0---0---1---1---2---0---|3---3---------------------------||
|1---1---------------------------|--------5---5---3---3---5---3---||



              (PLEASE RATE THIS TAB / LEAVE COMMENT)                   
comments
We did not receive enough feedback on this tab! Please rate:
print report bad tab
1 2 3 4 5
I want to post or [tab]
guest
You may want to rate the tab now too:
select rating
Please do not post tabs as comments. Select "correction" instead!