Oops, an error
Loading. Please wait.

You Aint Seen Nothing Yet bass

version 3
version 3

Whole song

Interactive

214 views 1 this week
no commentswrite comment
1 2 3 4 5
3 more votes to show rating
add to favorites
×
Save as Personal and add changes to this tab that will be seen only by you. Learn more ›
×
You can save this tab as Personal to edit and correct it or add notes. All changes will be seen only by you. Learn more »
launch autoscroll
font size
0
reset
guitar tuner
edit
Autoscroll
slow
fast
+/-
esc
set tempo
stop
Author
You Ain’t Seen Nothing Yet
Released by Bachman Turner Overdrive in 1974. Massive number 1 all
Over the world except for UK, only # 2. Bass performance Fred Turner.
Tab by bass50611. Not exact but this what I would play on stage.
Symbol ‘.’ Are Pause Dots

Intro:                                             (Play This x2)
G|--------------------------------------------------------------|
D|--------------------------------------------------------------|
A|-0--12--12--12---10--10---------0--12--12--12---10--10--------|
E|------------------------10--10-------------------------10--10-|

Verse 1:                                           (Play This x2)
G|--------------------------------------------------------------|
D|--------------------------------------------------------------|
A|-0--12--12--12---10--10---------0--12--12--12---10--10--------|
E|------------------------10--10-------------------------10--10-|

Pre-Chorus 1:
G|----------------------------------------------11------------------------|
D|------------3--3--5-------------------------11--------------------------|
A|-5--5--5--5--------------------------9--9--9-----------------7--7--7--7-|
E|--------------------3---5--5---9--9---------------7--7--7--7------------|

Chorus:
  ‘.’       ‘.’    ‘.’       ‘.’    ‘.’      ‘.’    ‘.’
G|-----------------------------------------------------------------------|
D|-----------------------------------------------------------------------|
A|-0------7--5------0------7--5------0-----7--5------0------7--5--4----7-|
E|------------------------------------------------------------------7----|

Interlude                                          (Play This x2)
G|--------------------------------------------------------------|
D|--------------------------------------------------------------|
A|-0--12--12--12---10--10---------0--12--12--12---10--10--------|
E|------------------------10--10-------------------------10--10-|

Verse 2:                                           (Play This x2)
G|--------------------------------------------------------------|
D|--------------------------------------------------------------|
A|-0--12--12--12---10--10---------0--12--12--12---10--10--------|
E|------------------------10--10-------------------------10--10-|

Pre-Chorus 2:
G|------------10-------------------------------11--------------------------|
D|-0--0--0--0----10------------------------------11------------------------|
A|------------------10--10--------------9--9--9----9------------7--7--7--7-|
E|--------------------------5--5--9--9---------------7--7--7--7------------|

Chorus:
  ‘.’       ‘.’    ‘.’       ‘.’    ‘.’      ‘.’    ‘.’
G|-----------------------------------------------------------------------|
D|-----------------------------------------------------------------------|
A|-0------7--5------0------7--5------0-----7--5------0------7--5--4----7-|
E|------------------------------------------------------------------7----|

Solo:                                              (Play This x8)
G|--------------------------------------------------------------|
D|--------------------------------------------------------------|
A|-0--12--12--12---10--10---------0--12--12--12---10--10--------|
E|------------------------10--10-------------------------10--10-|

Pre-Chorus 3:
G|------------------------------------------------------------------------|
D|-------------3--3---5--5------------------------------------------------|
A|-5--5--5--5---------------------------9--9--9--9-------------7--7--7--7-|
E|--------------------------5--5---9--9-----------9-7--7--7--7------------|

Chorus:
  ‘.’       ‘.’    ‘.’       ‘.’    ‘.’      ‘.’    ‘.’
G|-----------------------------------------------------------------------|
D|-----------------------------------------------------------------------|
A|-0------7--5------0------7--5------0-----7--5------0------7--5--4----7-|
E|------------------------------------------------------------------7----|

Outro: (Repeat Intro To Fade/End)
G|-------------------------------------------------|
D|-------------------------------------------------|
A|-0--0--0--7--5--5--5--5---0--0--0--7--5--5--5--5-|
E|-------------------------------------------------|

G|-------------------------------------------------|
D|-------------------------------------------------|
A|-0--0--0--7--5--5--5--5---0--0--0--7--5--4-----7-|
E|--------------------------------------------7----|

Symbol ‘.’ Are Pause Dots



I met a devil woman
She took my heart away
She said I had it coming to me but I wanted it that way
I think that any love is good lovin' so I took what I could get
She looked at me with big brown eyes and said, "You ain't seen nothing yet
B-B-B-Baby, you just ain't seen n-n-n-nothing yet
Here's something that your never gonna forget
B-B-B-Baby, you just ain't seen n-n-n-nothing yet
Nothing yet
You ain't been around"
That's what she told me

And now I'm feeling better 'cause I found out for sure
She took me to her doctor and he told me of a cure
He said that any love is good love so I took what I could get
Yes, I took what I could get
And then she looked at me with those big brown eyes and said, "You ain't seen nothing yet
B-B-Baby, you just ain't seen n-n-nothing yet
Here's something, here's something your never gonna f-forget, baby
You know, you know, you know, you just ain't seen nothing yet
You need an education, got to go to school

Any love is good lovin' so I took what I could get
Yes, I took what I could get
And then, and then, and then she looked at me with those big brown eyes and said, "You ain't seen nothing yet
Baby, you just ain't seen n-n-nothing yet
Here's something, here's something, here's something, lover, your never forget, baby
Baby, baby, baby, you just ain't seen n-n-nothing yet
You ain't been around
You ain't seen nothing yet"
That's what she told me
She said I need an education, go to school
I know, I ain't seen nothin' yet
I know, I ain't seen nothin' yet
Here's something for you
Right there, move
Feels good
I've been everywhere but I, I ain't seen nothin' yet
But I deserve it one of these days, one of these days
Wo-wo-wo-woman, wo-wo-woman I ain't seen nothin' yet
I, I, I, I, I, I ain't seen nothin' yet
I'll wait, I'll wait, I'll wait if you wanted to show me what I ain't seen, where I ain't been

            
            
Suggest correction
Creating personal tab
Creating personal tab
You can edit any tab online and save it as your Personal.

You can edit, replace or remove any tab part or add personal notes – all changes will be seen only by you.

Personal tabs can be accessed anytime from any device, even offline.
Learn more »
Give kudos to tab author, rate the tab!
1 2 3 4 5
comments
print report bad tab
guest
You may want to rate the tab now too:
select rating
Wanna post a correction for this tab? Suggest correction