Oops, an error
Loading. Please wait.

Strike Back Fairy Tail Ver Op 16 Tab

5,625 views 90 this week
1 commentread comment
1 2 3 4 5
excellent!
x 5
add to favorites
launch autoscroll
font size
0
reset
how to read this tab
guitar tuner
Tab Pro tools
  • play this tab
  • loop segment
  • change instrument
  • show fretboard
  • metronome
Autoscroll
slow
fast
+/-
esc
set tempo
stop
Contributor
Tuning
C G C F A D
Strike Back by BACK-ON (Fairy Tail Opening 16)

*This is my first go at making a tab by ear, if there's anything that is wrong please 
let me know in the
comments. I'm currently trying to figure out the second guitar.*
*Listen and Jam along to the song, for the strumming pattern for the chorus*
*Some of the palm muted notes are muted lightly*

Song Length (Duration): 1:30 (Fairy Tail Version)
Time Signature: Common Time (also known as 4/4 Time)
Tempo: 180 bpm

(/) Slide Up  (\) Slide Down   (pm) Palm Mute

Guitar 1

Intro:
D|-------------------------------------------------------------------------------------|
A|-------------------------------------------------------------------------------------|
F|-------------------------------------------------------------------------------------|
C|--5--------1--------8--------3-------------------------------------------------------|
G|--5-(16pm)-1-(16pm)-8-(16pm)-3-(8pm)-------------------------------------------------|
C|--5--------1--------8--------3-------------------------------------------------------|

D|----------------------------|
A|----------------------------|
F|----------------------------|
C|---555-11-888-333-11-33-----|
G|---555-11-888-333-11-33-----| x4
C|---555-11-888-333-11-33-----|


Verse 1:
D|---------------------------------------------------------------------------------------------|
A|---------------------------------------------------------------------------------------------|
F|---------------------------------------------------------------------------------------------|
C|-----------------------------------------------------55(5)--------11(1)--------88(8)---------|
G|-----------------------------------------------------55(5)-(14pm)-11(1)-(14pm)-88(8)-(14pm)--|
C|--5-(16)--1-(16)--8-(16)--7-(8)--6-(4)--5-(4)-(pm)---55(5)--------11(1)--------88(8)---------|

D|-------------------------------------------------------------------------------------|
A|-------------------------------------------------------------------------------------|
F|-------------------------------------------------------------------------------------|
C|--7--6---11--33--55---11--33--55---11--33--55---5--5-1-------------------------------|
G|--7--6---11--33--55---11--33--55---11--33--55---5--5-1-(8pm)-------------------------|
C|--7--6---11--33--55---11--33--55---11--33--55---5--5-1-------------------------------|

Chorus:
D|-------------------------------------------------------------------------------------|
A|-------------------------------------------------------------------------------------|
F|-------------------------------------------------------------------------------------|
C|--5--1--8--3--4--5--1--8--3--4-------------------------------------------------------|
G|--5--1--8--3--4--5--1--8--3--4-------------------------------------------------------|
C|--5--1--8--3--4--5--1--8--3--4-------------------------------------------------------|

D|----------------------------|
A|----------------------------|
F|----------------------------|
C|---555-11-888-333-11-33-----|
G|---555-11-888-333-11-33-----| x2
C|---555-11-888-333-11-33-----|
comments
print report bad tab
1 comment total.
0 reply
Katinthebluesky wrote on July 30 2014, 02:23 am

Thank you so much! (If it's not too much work could you make a Guitar Pro version of this? Sorry for any inconveniences and thank you!)

I want to post or [tab]
guest
You may want to rate the tab now too:
select rating
Please do not post tabs as comments. Select "correction" instead!