Oops, an error
Loading. Please wait.

Outside Woman Blues Tab

4,833 views 1 this week
no commentswrite comment
1 2 3 4 5
please rate
add to favorites
launch autoscroll
font size
0
reset
how to read this tab
guitar tuner
Autoscroll
slow
fast
+/-
esc
set tempo
stop
Help us to improve Ultimate-Guitar.com Take our survey!
×
Author
Difficulty
novice
Back Door Slam - Outside Woman Blues

Not many BDS tabs on here, thought I'd add to it.  I see there's another Outside Woman 
tab, but it's on guitar pro and I'm not sure if that's free or not, regardless, this is 
I play it.  Tuning is standard.

The main riff is pretty easy:

e|-------------------------------|
B|-------------------------------|
G|-------------------------------|
D|---5-7-8-7---7-----------------|
A|-7--------5----5------5-----5--|
E|------------------5h7---5h7----|

Then the next part goes like this:

e|---x-x-------------------|
B|---x-x-8-8---------------|
G|---x-x-7-7---------------|
D|---x-x-6-6---------------|
A|---x-x-7-7------5------5-|
E|-0-x-x------5h7----5h7---|

Actually, most of the song is these two parts repeated a bunch (especially the second, 
used during the chorus).  Listen to it and figure it out, it's not too hard.
Suggest correction
Give kudos to tab author, rate the tab!
1 2 3 4 5
comments
print report bad tab
guest
You may want to rate the tab now too:
select rating
Please do not post tabs as comments. Select "correction" instead!