Oops, an error
Loading. Please wait.

Dont Want You Back tab

184 views 1 this week
no commentswrite comment
1 2 3 4 5
x 5
add to favorites
×
Save as Personal and add changes to this tab that will be seen only by you. Learn more ›
×
You can save this tab as Personal to edit and correct it or add notes. All changes will be seen only by you. Learn more »
launch autoscroll
font size
0
reset
how to read this tab
guitar tuner
edit
Autoscroll
slow
fast
+/-
esc
set tempo
stop
The chorus and the outro after the bridge are where the vocals go up another octave or two, but the guitar
remains the same octave as before that point. Also, it might help to go to one of the lyric or official 
videos of the song in order to get the tempo of everything down well. 

Intro: Don't don't want you back

       e|-------5-----5-4~-----|
       B|---------2h3-----0h2~-|
       G|----------------------| X4
       D|-4-4-4-4--------------|
       A|-4-4-4-4--------------|
       E|-2-2-2-2--------------|

Verse: e|-----------------------|
       B|-----------------------|
       G|-------7-----7-6~------| X4
       D|-4-4-4---4h5------2h4~-|
       A|-4-4-4-----------------|
       E|-2-2-2-----------------|

          You hit me faster than a shark attack

          You saw my picture on the Backstreet's Back (alright!)

          And you were more than just a pretty face

          But how you fooled me, I'm still amazed baby

       e|-------5-----5-4~-----|
       B|---------2h3-----0h2~-|
       G|----------------------| X2
       D|-4-4-4-4--------------|
       A|-4-4-4-4--------------|
       E|-2-2-2-2--------------|

          But I should have known that I would be

          Another victim of your sexuality

       e|-------5-----5-4~----4-2~-12421~-|
       B|---------2h3-----0h2-------------|
       G|---------------------------------|
       D|-4-4-4-4-------------------------|
       A|-4-4-4-4-------------------------|
       E|-2-2-2-2-------------------------|

          But now we're done and over with

          Don't don't want you back

Chorus: e|------------------------------------|
        B|------------------------------------|
        G|-------7-----7-6~-----6-4~-4643~-4~-| X2
        D|-4-4-4---4h5------2h4---------------|
        A|-4-4-4------------------------------|
        E|-2-2-2------------------------------|
 
           Don't want you back 'cause you're no good for me. I know that's all I can say

           Don't want you back. Forgive my honesty but you gotta go. I-I don't want you back

Pre-Verse: e|-----------------------|
           B|-----------------------|
           G|-------7-----7-6~------|
           D|-4-4-4---4h5------2h4~-|
           A|-4-4-4-----------------|
           E|-2-2-2-----------------|

Verse: e|-----------------------|
       B|-----------------------|
       G|-------7-----7-6~------| X2
       D|-4-4-4---4h5------2h4~-|
       A|-4-4-4-----------------|
       E|-2-2-2-----------------|

          You started going out with so-called friends

          But I was blind and so I lost all common sense

       e|------------------------------------|
       B|------------------------------------|
       G|-------7-----7-6~-----6-4~-4643~-4~-| 
       D|-4-4-4---4h5------2h4---------------|
       A|-4-4-4------------------------------|
       E|-2-2-2------------------------------|

         But there were things that made me realize (realize) like all the hundred, no, thousand lies.

Chorus: e|------------------------------------|
        B|------------------------------------|
        G|-------7-----7-6~-----6-4~-4643~-4~-|
        D|-4-4-4---4h5------2h4---------------|
        A|-4-4-4------------------------------|
        E|-2-2-2------------------------------|
 
           Don't want you back 'cause you're no good for me. I know that's all I can say

           Don't want you back. Forgive my honesty but you gotta go. I-I don't want you back

       e|-------5-----5-4~----4-2~-12421~-|
       B|---------2h3-----0h2-------------|
       G|---------------------------------|
       D|-4-4-4-4-------------------------|
       A|-4-4-4-4-------------------------|
       E|-2-2-2-2-------------------------|

          Aaaaaa-i-yaaaaaaah you're wroooooooong. I-I don't want you back.

Interlude: e|-----------------------|
           B|-----------------------|
           G|-------7-----7-6~------| X2
           D|-4-4-4---4h5------2h4~-|
           A|-4-4-4-----------------|
           E|-2-2-2-----------------|

              *Long pause* That's right.

              Baby

Bridge: e|------------------------------------|
        B|------------------------------------|
        G|-------------------7---7---6---6----|
        D|---4---4---2---2--7-7-7-7-6-6-6-64~-|
        A|--4-4-4-4-2-2-2-25---5---4---4---4~-|
        E|-2---2---0---0-------------------2~-|

          Don't bother telling me your reasons why. Just let us sing this story 'bout you and I.

Chorus: e|-5-----5-4~----4-2~-12421~-|
        B|---2h3-----0h2-------------|
        G|---------------------------| X2
        D|-4-------------------------|
        A|-4-------------------------|
        E|-2-------------------------|

           Don't want you back. That's all I know. (Don't want you back) All I can

           say. Don't want you back. You know you gotta go. I-I

Outro: e|-------5-----5-4~----4-2~-12421~-|
       B|---------2h3-----0h2-------------|
       G|---------------------------------| X4
       D|-4-4-4-4-------------------------|
       A|-4-4-4-4-------------------------|
       E|-2-2-2-2-------------------------|

          Don't want you back 'cause you're no good for me. I know that's all I can say

          Don't want you back. Forgive my honesty but you gotta go. I-I don't want you back

          Don't want you back. That's all I know. (Don't want you back) That's all I can

          say. Don't want you back. You know you gotta go. I-I


       e|---------|
       B|---------|
       G|---------|
       D|-4-4-4-4-|
       A|-4-4-4-4-|
       E|-2-2-2-2-|

          don't want you back!
Suggest correction
Creating personal tab
Creating personal tab
You can edit any tab online and save it as your Personal.

You can edit, replace or remove any tab part or add personal notes – all changes will be seen only by you.

Personal tabs can be accessed anytime from any device, even offline.
Learn more »
comments
print report bad tab
guest
You may want to rate the tab now too:
select rating
Wanna post a correction for this tab? Suggest correction