Oops, an error
Loading. Please wait.

Incomplete intro tab

version 1
version 1

Intro

Whole song

Interactive

25,058 views 1 this week
3 commentsread comments
1 2 3 4 5
x 22
add to favorites
×
Save as Personal and add changes to this tab that will be seen only by you. Learn more ›
×
You can save this tab as Personal to edit and correct it or add notes. All changes will be seen only by you. Learn more »
launch autoscroll
font size
0
reset
how to read this tab
guitar tuner
edit
Autoscroll
slow
fast
+/-
esc
set tempo
stop
Author
Backstreet Boys - Incomplete

This is the first time i've ever tabbed anything.
As a first attempt, I think i've been able to get the intro of the song pretty accurate.
Please feel free to correct, or figure out the rest. I'm pretty sure that the intro is
here and there throughout the song. ... i'm not a 100% accurate on the chords. But I
think verse my begin
with Fm

Intro:
 |----------------------------------|
 |----------------------------------|
 |--2-------1------1----------------|
 |-----4-------2------2-2-1--4------|
 |----------------------------------|
 |----------------------------------|

 |----------------------------------|
 |----------------------------------|
 |--2-------1------1----------------|
 |-----4-------2------2---2-1-------|
 |----------------------------4-----|
 |----------------------------------|

            
            
Suggest correction
Creating personal tab
Creating personal tab
You can edit any tab online and save it as your Personal.

You can edit, replace or remove any tab part or add personal notes – all changes will be seen only by you.

Personal tabs can be accessed anytime from any device, even offline.
Learn more »
comments
print report bad tab
3 comments total.
0 reply
michaelrlynch85 10 Apr 10, 2005 08:00 PM

considering this is a piano intro, you did a good job.

0 reply
BaSsFrK402 42 May 29, 2005 08:00 PM

its f sharp minor

0 reply
TheGuider 10 Jun 06, 2010 02:19 PM

Hey :) Awesome tab... Thanks!

However, I think that it sounds a bit more accurate when playing the second part of the intro this way:

|----------------------------------|
|----------------------------------|
|--2-------1------1----------------|
|-----4-------2------2---4-2-1-----|
|-------------------------------4--|
|----------------------------------|

Sorry if I'm mistaken... Only my first month with a guitar, so I'm pretty much a noob XD

guest
You may want to rate the tab now too:
select rating
Wanna post a correction for this tab? Suggest correction