Oops, an error
Loading. Please wait.

Incomplete Chords

version 4
version 4

Whole song

Interactive

37,660 views 39 this week
2 commentsread comments
1 2 3 4 5
x 20
add to favorites
launch autoscroll
font size
0
reset
transpose
0
reset
display chords
guitar tuner
Autoscroll
slow
fast
+/-
esc
set tempo
stop
Help us to improve Ultimate-Guitar.com Take our survey!
×
Artist: Backstreet Boys
Song: Incomplete
Album: Never Gone

Chorded by Phil Tay while is bored at home !

Http://www.wakeboard.com.sg - Home of Singaporean wakeboarders

Standard tuning


[Intro]

   Dm          Am         C         G
e||--------1----------0---------0-----------------------|
B||------3---3------1---1-----1---1-1-1-0-3-------------|
G||----2----------2---------0---------------------------|
D||--0----------2---------------------------------------|
A||-----------------------3---------3-3---3-------------|
E||-----------------------------------------------------|

   Dm          Am         C         G
e||--------1----------0---------0-----------------------|
B||------3---3------1---1-----1---1-3-1-0-0-1-----------|
G||----2----------2---------0---------------------------|
D||--0----------2---------------------------------------|
A||-----------------------3---------3-------------------|
E||-----------------------------------------------------|


[Verse 1]

Dm     Am
  Empty spaces
C             G
  Fill me up with holes
Dm      Am        
  Distant faces
C           G         
  With no place left to go
Dm           Am      
  Without you within me
C          G
  I can't find no rest
Dm         Am                    
  Where I'm going  
C      G         F 
  Is anybody's guess


[Chorus]

Am       C
I've tried
  G                        
To go on like I never knew you
Am      C
  I'm awake
        G
But my world is half asleep
Am      C
   I pray
          G             
For this heart to be unbroken
     F                  Am         G  
But without you all I'm going to be is
Incomplete


[Break]

Dm   Am   C   G  (x2)


[Verse 2]

Dm      Am
  Voices tell me
C           G 
  I should carry on
Dm        Am
  But I am swimming
C       G           Dm
  In an ocean all alone
      Am
  Baby, my baby
C              G
  It's written on your face
Dm         Am
  You still wonder
C        G             F
  If we made a big mistake


[Chorus]

Am       C
I've tried
  G                        
To go on like I never knew you
Am      C
  I'm awake
        G
But my world is half asleep
Am      C
   I pray
          G             
For this heart to be unbroken
     F                  Am         G  
But without you all I'm going to be is
       F
Incomplete

Am                      G
I don't mean to drag it on
                             F
But I can't seem to let you go
Am                      G                     
I don't wanna make you face this world alone


[Break] 

Dm   Am   C   G  (x2)


[Chorus]

Am       C
I've tried
  G                        
To go on like I never knew you
Am      C
  I'm awake
        G
But my world is half asleep
Am      C
   I pray
          G             
For this heart to be unbroken
     F                  Am         G  
But without you all I'm going to be is
Incomplete


[Outro]
(fade out)

Dm   Am   C   G  (x3)
Suggest correction
comments
print report bad tab
2 comments total.
0 reply
Aydarin 69 Mar 13, 2014 12:23 PM

Tab is great, but capo on 4!

0 reply
pgsmedley 17 Feb 15, 2016 03:33 PM

on the second tab replace the last 1 to a 2 on the G string

|
Dm Am C G V
||--------1----------0---------0-----------------------|
||------3---3------1---1-----1---1-3-1-0-0-------------|
||----2----------2---------0---------------2-----------|<-----
||--0----------2---------------------------------------|
||-----------------------3---------3-------------------|
||-----------------------------------------------------|

guest
You may want to rate the tab now too:
select rating
Wanna post a correction for this tab? Suggest correction