Oops, an error
Loading. Please wait.

Larger Than Life solo tab

version 1
version 1

Solo

Whole song

Interactive

7,186 views 3 this week
no commentswrite comment
1 2 3 4 5
x 3
add to favorites
×
Save as Personal and add changes to this tab that will be seen only by you. Learn more ›
×
You can save this tab as Personal to edit and correct it or add notes. All changes will be seen only by you. Learn more »
launch autoscroll
font size
0
reset
how to read this tab
guitar tuner
edit
Autoscroll
slow
fast
+/-
esc
set tempo
stop
Author
Difficulty
b: bend up
r: release bend
h: hammer-on
p: pull-off
/: slide up
~: vibrato

Who would have thought there would be such an awesome rock solo in the
middle of a Backstreet Boys song? The end lick even enters the realms of
shred. Anyway, since people have only transcribed the chords I thought I
would put a tab of the solo on the net. Pull this off this along with your
singing skills and you will be very popular!

-8---------8~---------------------------------------------------------------|
-11b(13)---11b(13)~--10b(12)-10-8-10-8-10b(12)-8--------------16b(18)-16-18-|
-------------------------------------------------10~------------------------|
----------------------------------------------------------------------------|
----------------------------------------------------------------------------|
----------------------------------------------------------------------------|

-------------15-18p15--15h18p15--15h18p15--15--15-18b(20)~~-----------------|
-16-18b(20)----------18--------18--------18--18-----------------------------|
----------------------------------------------------------------------------|
----------------------------------------------------------------------------|
----------------------------------------------------------------------------|
----------------------------------------------------------------------------|

-20b(23)r(20)--18-20-----18-20----------------------------------------------|
---------------------18--------16~--18b(19)r(18)p16-18p16------18p16--------|
----------------------------------------------------------17~--------17~~---|
----------------------------------------------------------------------------|
----------------------------------------------------------------------------|
----------------------------------------------------------------------------|

very fast
----18h20p18--18------------------------------------------------------------|
-/20--------20--20p18h20p18--18---------------------------------------------|
---------------------------20--20p17h20p17--17------------------------------|
------------------------------------------20--20p17h20p17--17---------------|
---------------------------------------------------------20--20p18h20p18----|
------------------------------------------------------------------------20~-|

            
            
Suggest correction
Creating personal tab
Creating personal tab
You can edit any tab online and save it as your Personal.

You can edit, replace or remove any tab part or add personal notes – all changes will be seen only by you.

Personal tabs can be accessed anytime from any device, even offline.
Learn more »
Give kudos to tab author, rate the tab!
1 2 3 4 5
comments
print report bad tab
guest
You may want to rate the tab now too:
select rating
Wanna post a correction for this tab? Suggest correction