Oops, an error
Loading. Please wait.

A Song For The Outcast bass

version 1
version 1

Whole song

Interactive

947 views 1 this week
no commentswrite comment
1 2 3 4 5
3 more votes to show rating
add to favorites
×
Save as Personal and add changes to this tab that will be seen only by you. Learn more ›
×
You can save this tab as Personal to edit and correct it or add notes. All changes will be seen only by you. Learn more »
launch autoscroll
font size
0
reset
guitar tuner
edit
Autoscroll
slow
fast
+/-
esc
set tempo
stop
Author
Difficulty
-------------------------------------------------------------------------------
			Backyard Babies - Song for the Outcast
-------------------------------------------------------------------------------

Tabbed By: creuther
Tuning: EADG

I tabbed the whole thing out, so it might look a little overwhelming, but this way 
there's no guesswork: its played exactly as it's written ;-)
And to avoid confusion: 10,11,12,14,17 are always the actual numbers - ten, elven, ...

Annotations:
| x 	play the preceding note multiple times
| /\	slide up and down in a smooth motion
| ~	let ring

Enjoy!



Intro
G|--------------------|-----------------------------------------|-----------------|
D|--------------------|-----------------------------------------|-----------------|
A|-2~-2~-(rest)-/14x\-|-2222------5555------2222------5555------|-2~-(rest)-/14x\-|
E|--------------------|------3333------2222------3333------2222-|-----------------|

Verse 1 ("Roses are red...")
G|--------------------------------------|--------------------------------------|
D|--------------------------------------|--------------------------------------|
A|-2222222222222222------5555------22/\-|-2222222222222222------5555------22/\-|
E|------------------3333------2222------|------------------3333------2222------|

Prechorus ("Are we meant to be angels falling...")
G|---------------------------------------|----------------------------------|
D|---------------------------------------|----------------------------------|
A|----------55555555----------2222-4542--|----------45555555-10-11-12x-5420-|
E|-33333333----------22222222----------5-|-33333333-------------------------|

Chorus ("On the road to a strict perfection...")
G|-----------------------------------------|----------------------------------------|------|
D|-----------------------------------------|----------------------------------------|------|
A|-2222------5555------2222------5555------|-2222-10x-5555------2222------5555------|-/14x-|
E|------3333------2222------3333------2222-|---------------2222------3333------2222-|------|



Verse 2 ("Monster's been fed thousands ahead")
G|-------------------------------------|---------------------------------|
D|-------------------------------------|----16-16-16---------------------|
A|-2222222222222222------5555------22/-|-14x--------------5555------22/\-|
E|------------------3333------2222-----|-------------3333------2222------|

Prechorus ("Are we meant to be angels falling...")
G|---------------------------------------|----------------------------------|
D|---------------------------------------|----------------------------------|
A|----------55555555----------2222-4542--|----------45555555-10-11-12x-5420-|
E|-33333333----------22222222----------5-|-33333333-------------------------|

Chorus ("On the road to a strict perfection...")
G|-----------------------------------------|----------------------------------------|
D|-----------------------------------------|----------------------------------------|
A|-2222------5555------2222------5555------|-2222------5555------2222-10x-5555------|
E|------3333------2222------3333------2222-|------3333------2222---------------22/\-|



Bridge  ("No, I won't fade out with you...") / Solo
G|--------------------------------------------------------|
D|--------------------------------------------------------|
A|-------------------/14x\------------------00000000/12x\-|
E|--3333333333333333-------3333333333333333---------------|

-------------------------------------------|
-------------------------------------------|
-2222------5555-45420-2222------5555-45420-|
------3333-----------------3333------------|

G|------------------------------------------|-------|
D|------------------------------------------|-------|
A|-2222-10x-5555-45420-2222------5555-45420-|-2~-/\-|
E|--------------------------3333------------|-------|



Verse 3 ("What is your fear invitations are here...")
G|----------------------------------------|------------------------------------------------|
D|---------------444----------------------|-----------------16-16-16-----------------------|
A|-22222----22222---------5555------2222/-|-14x----------14x--------------5555------2222/\-|
E|------222----------3333------2222-------|----14-14-14--------------3333------2222--------|

Prechorus ("Are we meant to be angels falling...")
G|---------------------------------------|----------------------------------|
D|---------------------------------------|----------------------------------|
A|----------55555555----------2222-4542--|----------45555555-10-11-12x-5420-|
E|-33333333----------22222222----------5-|-33333333-------------------------|

G|----------------------------------|-----------------------------------------------|
D|----------------------------------|-----------------------------------------------|
A|----------55555555----------22-22-|----------45555555-10-11-12x-00000000-12x-5420-|
E|-33333333----------22222222-------|-33333333--------------------------------------|

Last Chorus / Outro ("On the road to a strict perfection...)"
G|-----------------------------------------|----------------------------------------|
D|-----------------------------------------|----------------------------------------|
A|-2222------5555------2222------5555------|-2222-10x-5555------2222------5555------|
E|------3333------2222------3333------2222-|---------------2222------3333------2222-|

G|-------------------------------------------|------------------------------------------|--------|
D|-------------------------------------------|------------------------------------------|--------|
A|-2222------5555-45420-2222------5555-45420-|-2222------5555-45420-2222------5555-4545-|-454542~|
E|------3333-----------------3333------------|------3333-----------------3333-----------|--------|

            
            
Suggest correction
Creating personal tab
Creating personal tab
You can edit any tab online and save it as your Personal.

You can edit, replace or remove any tab part or add personal notes – all changes will be seen only by you.

Personal tabs can be accessed anytime from any device, even offline.
Learn more »
Give kudos to tab author, rate the tab!
1 2 3 4 5
comments
print report bad tab
guest
You may want to rate the tab now too:
select rating
Wanna post a correction for this tab? Suggest correction