Oops, an error
Loading. Please wait.

Year By Year bass

34 views 1 this week
1 commentread comment
1 2 3 4 5
3 more votes to show rating
add to favorites
×
Save as Personal and add changes to this tab that will be seen only by you. Learn more ›
×
You can save this tab as Personal to edit and correct it or add notes. All changes will be seen only by you. Learn more »
launch autoscroll
font size
0
reset
guitar tuner
edit
Autoscroll
slow
fast
+/-
esc
set tempo
stop
------------------------------------------------------------------------------
                        Year by Year - Backyard Babies
------------------------------------------------------------------------------

Tabbed by: ChrisT

From the Album: Stockholm Syndrome (2003)

Tuning: Eb Ab Db Gb

Intro (0:06)
Gb|----------|----------------------------------------------------------------------|
Db|----------|o--------------------------------------------------------------------o|
Ab|--3-3-3---|o--5-5-5-5---------5-5-5-5-5-------1-1-1-1-1-1-1-1-5-5-5-5---3-3-3---o|
Eb|----------|-----------1-1-1-1-----------1-1-1------------------------------------|

Verse
Gb|----------------------------------------------------------------------|
Db|o------------------3-3-3-3-3-3-3-3------------------------------------|
Ab|o--5-5-5-5-5-5-5-5-----------------3-3-3-3-3-3-3-3---------2-2-3-3----|
Eb|---------------------------------------------------3-3-3-3------------|

Gb|----------------------------------------------------------------------------|
Db|-------------------3-3-3-3-3-3-3-3----------------/5---5---5---5---5---5---o|
Ab|---5-5-5-5-5-5-5-5-----------------3-3-3-3-3-3-3-3-------------------------o|
Eb|----------------------------------------------------------------------------|

Gb|-----------------------------------------------------------------------------------------|
Db|-----------------------------------------------------------------------------------------|
Ab|---1-1-1-1-1-1-1-1/13-13-13-13-13-13-13-13-13-3-3-3-3-3-3-3-3/15-15-15-15-15-15-15-15\---|
Eb|-----------------------------------------------------------------------------------------|

Chorus
Gb|--------------------------------------------------------------|
Db|---------------------3-1-0------------------------------------|
Ab|---5-5---3-3---1-1---------3-3-3-3-1h3-3-3-1h3-3-3-1h3-3-3----|
Eb|--------------------------------------------------------------|

Gb|--------------------------------------------------------------|
Db|---3-3---------------3-1-0------------------------------------|
Ab|---------3-3---1-1---------3-3-3-3-1h3-3-3-1h3-3-3-1h3-3-3----|
Eb|--------------------------------------------------------------|

Verse
Gb|----------------------------------------------------------------------|
Db|-------------------3-3-3-3-3-3-3-3------------------------------------|
Ab|---5-5-5-5-5-5-5-5-----------------3-3-3-3-3-3-3-3---------2-2-3-3----|
Eb|---------------------------------------------------3-3-3-3------------|

Gb|----------------------------------------------------------------------------|
Db|-------------------3-3-3-3-3-3-3-3----------------/5---5---5---5---5---5----|
Ab|---5-5-5-5-5-5-5-5-----------------3-3-3-3-3-3-3-3--------------------------|
Eb|----------------------------------------------------------------------------|

Gb|-----------------------------------------------------------------------------------------|
Db|-----------------------------------------------------------------------------------------|
Ab|---1-1-1-1-1-1-1-1/13-13-13-13-13-13-13-13-13-3-3-3-3-3-3-3-3/15-15-15-15-15-15-15-15\---|
Eb|-----------------------------------------------------------------------------------------|

Chorus
Gb|----------------------------------------------------------------------|
Db|---------------------3-1-0--------------------------------------------|
Ab|---5-5---3-3---1-1---------3-3-3-3-1h3-3-3/15-15-15-15-15-15-15-15----|
Eb|----------------------------------------------------------------------|

Gb|--------------------------------------------------------------|
Db|---3-3---------------3-1-0------------------------------------|
Ab|---------3-3---1-1---------3-3-3-3-1h3-3-3-1h3-3-3-1h3-3-3----|
Eb|--------------------------------------------------------------|

Gb|--------------------------------------------------------------|
Db|---------------------3-1-0------------------------------------|
Ab|---5-5---3-3---1-1---------3-3-3-3-1h3-3-3-1h3-3-3-1h3-3-3----|
Eb|--------------------------------------------------------------|

Gb|--------------------------------------------------------------|
Db|---3-3---------------3-1-0------------------------------------|
Ab|---------3-3---1-1---------3-3-3-3-1h3-3-3-1h3-3-3-1h3-3-3----|
Eb|--------------------------------------------------------------|

Bridge
Gb|----------------------------------------------------------------------|
Db|---------------------------------------------------3h5-5-5-5-5-5-5----|
Ab|---1-1-1-1-1-1-1-1-3-3-3-3-3-3-3-3-3h5-5-5-5-5-5-5--------------------|
Eb|----------------------------------------------------------------------|

Gb|---------------------------------------8-8-7-7-9-9-----7-7-8-8-10-10----|
Db|-------------------------------------7-------------8-8------------------|
Ab|---1-1-1-1-1-1-1-1-3-3-3-3-3-3-3-3-0------------------------------------|
Eb|------------------------------------------------------------------------|

Gb|----------------------------------------------------------------------|
Db|----------------------------------------------------------------------|
Ab|---1-1-1-1-1-1-1-1-3-3-3-3-3-3-3-3-5-5-5-5-5-5-5-5-3-3-3-3-3-3-3-3----|
Eb|----------------------------------------------------------------------|

Gb|----------------------------------------------------------------------|
Db|----------------------------------------------------------------------|
Ab|---1-1-1-1-1-1-1-1-3-3-3-3-3-3-3-3-5\---------------------------------|
Eb|----------------------------------------------------------------------|

Gb|------------------------------------------------------------------------------------------------------|
Db|---12-12-12-12-12-12-12-12-12-12-12-12-12-12-12-12-12-12-12-12-12-12-12-12-12-12-12-12-12-12-12-------|
Ab|------------------------------------------------------------------------------------------------12\---|
Eb|------------------------------------------------------------------------------------------------------|

Guitar Solo
Gb|----------------------------------------------------------------------|
Db|o--------------------------------------------------------------------o|
Ab|o--5-5-5-5---------5-5-5-5-5-------1-1-1-1-1-1-1-1-5-5-5-5---3-3-3---o|
Eb|-----------1-1-1-1-----------1-1-1------------------------------------|

Verse
Gb|----------------------------------------------------------------------|
Db|o---------------------------------------------------------------------|
Ab|o--5-5-----------------------------3-3--------------------------------|
Eb|-------------------1-1-----------------------------3-3----------------|

Gb|----------------------------------------------------------------------|
Db|o--------------------------------------------------5-5-5-5-5-5-5-5-5--|
Ab|o--5-5-----------------------------3-3--------------------------------|
Eb|-------------------1-1------------------------------------------------|

Gb|-------------------------------------------------------------------------------------------------|
Db|-------------------------------------------------------------------------------------------------|
Ab|---1-1-1-1-1-1-1-1/13-13-13-13-13-13-13-13-13-17-17-17-17-17-17-17-17-17-17-17-17-17-15----------|
Eb|----------------------------------------------------------------------------------------17-15\---|

Gb|-------------------------------------------------------------------------------------------------|
Db|-------------------------------------------------------------------------------------------------|
Ab|---1-1-1-1-1-1-1-1/13-13-13-13-13-13-13-13-13-15-15-15-15-15-15-15-15-15-15-15-15-15-15-15-15\---|
Eb|-------------------------------------------------------------------------------------------------|

Outro Chorus
Gb|----------------------------------------------------------------------|
Db|o--------------------3-1-0--------------------------------------------|
Ab|o--5-5---3-3---1-1---------3-3-3-3-1h3-3-3/15-15-15-15-15-15-15-15----|
Eb|----------------------------------------------------------------------|

Gb|--------------------------------------------------------------|
Db|---3-3---------------3-1-0-----------------------------------o|
Ab|---------3-3---1-1---------3-3-3-3-1h3-3-3-1h3-3-3-1h3-3-3---o|
Eb|--------------------------------------------------------------|

Gb|----------------------------------------------------------------------|
Db|o--------------------------------------------------------------------o|
Ab|o--5-5-5-5---------5-5-5-5-5-------1-1-1-1-1-1-1-1-5-5-5-5---3-3-3---o|
Eb|-----------1-1-1-1-----------1-1-1------------------------------------|

Gb|---------------------|
Db|---------------------|
Ab|---5-5-5---5-5-5\----|
Eb|---------------------|






Suggest correction
Creating personal tab
Creating personal tab
You can edit any tab online and save it as your Personal.

You can edit, replace or remove any tab part or add personal notes – all changes will be seen only by you.

Personal tabs can be accessed anytime from any device, even offline.
Learn more »
Give kudos to tab author, rate the tab!
1 2 3 4 5
comments
print report bad tab
1 comment total.
0 reply
xxxxChrisTxxxx [tm] 10,215 Jul 01, 2016 11:58 PM

I think this might be played in drop D - the low D can be heard in the verse after the solo but I'd already tabbed most of it out in this tuning by then and couldn't be bothered with rewriting it all out.

guest
You may want to rate the tab now too:
select rating
Wanna post a correction for this tab? Suggest correction