Oops, an error
Loading. Please wait.

Jessicas Suicide chords

7,333 views 1 this week
1 commentread comment
1 2 3 4 5
x 3
add to favorites
×
Save as Personal and add changes to this tab that will be seen only by you. Learn more ›
×
You can save this tab as Personal to edit and correct it or add notes. All changes will be seen only by you. Learn more »
launch autoscroll
font size
0
reset
transpose
0
reset
display chords
guitar tuner
edit
Autoscroll
slow
fast
+/-
esc
set tempo
stop
Difficulty
Strumming
There is no strumming pattern for this song yet. and get +5 IQ
Bad Astronaut - Jessica's Suicide

Standard Tuning

Intro: C   Dm   A#m   F
       Dm  A#m  F


[G] Jessica [Am]suicide [F]takes me [C]for a ride
[Am]I'm just a [F]crazy one-armed [C]man
[G] Strange world, [Am]dead girl
[F] Die each day or [C]so you say it
[Am]How much [F]death can one man [C]stand?
[Am]How much [F]death can one man [C]stand?

[F] I might broadcast your dull eyes
[C] Breathless like you, I'm despised
[F] And understand I just can't
[C] Help but stand up to the old lies
[Am]This time [F]she'll do it
[G] Too late my bus is [F]leaving
[Am]But I don't [F]care what you have [C]planned
[Am]But I don't [F]care what you have [C]planned

[G]Jessica [Am]suicide, [F]never [C]even tried
[Am]But I gave [F]in to her [C]demands
[G]Death threats, [Am]regrets
[F]Go ahead I [C]heard all you've said
[Am]Cause bitter [F]always becomes [C]bland
[Am]Cause bitter [F]always becomes [C]bland
[Am]Cause bitter [F]always becomes [C]bland
[Am]Cause bitter [F]always becomes [C]bland

Continue playing: Am F C

[F]So scared to characterize
[C]I've always known your cold eyes
[F]And now I fully realize
[C]I just can't take this deadly surprise
[Am]This time [F]she'll do it
[G]Too late my [F]bus is leaving
[Am]I don't [F]care what she have [C]planned
[Am]I don't [F]care what she have [C]planned

[G]Running on... [Am] [F] [C]
[Am]I don't [F]care what you have [C]planned for me
[G] [Am] [F] [C]
[Am]I don't [F]care what you have [C]planned for me
[Am]I don't [F]care what you have [C]planned for me
[Am]I don't [F]care what you have [C]planned for me

[G] [Am] [F] [C]
[Am]I don't [F]care what you have [C]planned

Tabbed by Zcalic
Contact: theweak87@hotmail.com
Suggest correction
Creating personal tab
Creating personal tab
You can edit any tab online and save it as your Personal.

You can edit, replace or remove any tab part or add personal notes – all changes will be seen only by you.

Personal tabs can be accessed anytime from any device, even offline.
Learn more »
Give kudos to tab author, rate the tab!
1 2 3 4 5
comments
print report bad tab
1 comment total.
-1 reply
Herceg 41 Jan 17, 2008 10:41 AM

Here is the solo between the second verse and last section:


e-------5-----------7----8------------5--------------7---8--------
B-----5--8---6
5--5----8----8-6-5--5----8---6-5----5---8---8-6-5-----

G---7------5----7-------------------------7-------5-----------
-------

D--------------------------------------------------------------------

A--------------------------------------------------------------------

E--------------------------------------------
------------------------


e---------5----7----8-----------5-------------------------------

B--5--8----6-5----8----8--6-5-5---8-6-5(bend)------------------------

G--------------------------------------------
------------------------

D--------------------------------------------------------------------

A--------------------------------------------------------------------

E--------------------------------------------
------------------------

guest
Wanna post a correction for this tab? Suggest correction