Oops, an error
Loading. Please wait.

It Never Stops Tab

5,649 views 1 this week
2 commentsread comments
1 2 3 4 5
excellent!
x 4
add to favorites
launch autoscroll
font size
0
reset
how to read this tab
guitar tuner
Autoscroll
slow
fast
+/-
esc
set tempo
stop
Help us to improve Ultimate-Guitar.com Take our survey!
×
Author
Second song released off of Bad Books II

Tuning: Standard

Verse 1:
   G       G       C       G         G
e|-----------------------------------3--------|
B|--------------------------------------------|
G|--------------------------------------------|
D|-5-------5-------10-------5--------5--------|
A|-5-------5-------10-------5--------5--------|
E|-3-------3-------/8------/3--------3--------|
"McCarren park..."                  "Folded arms..."

  G
e|-------------------------------------------------|
B|-------------------------------------------------|
G|-------------------------------------------------|
D|-00-000-000-000-000-000-000-000-000-000-000-000--|
A|-22-222-222-222-222-222-222-222-222-222-222-222--|
E|-------------------------------------------------|
                      "Speedy eyes..." 
    C
e|----------------------------------|
B|----------------------------------|
G|----------------------------------|
D|-255-555-555-555-555-555-555-555--|
A|-077-777-777-777-777-777-777-777--|
E|----------------------------------|
      "truth cut with..."
    G
e|------------------------------------|
B|------------------------------------|
G|------------------------------------|
D|-500-000-000-000-000-000-000-00000--|
A|-722-222-222-222-222-222-222-22222--|
E|-----------------------------33333--|
      "Cash baggies..." 

Chorus 1:
Em          Bm
And I know, you know
C
I want to love you
      G
But I can’t let go
C               D
Honey, it never stops

No it never stops

Chorus Lead Guitar: 
e|-----7-------7-------8-------3-------8-----8------12p10------10-------10-|
B|---8---8---7---7---8---8---3---3---8---8------10-------10----------------|
G|-9-------7-------9-------4-------9-------9---8-----------11----11-11h12--|
D|-------------------------------------------------------------------------|
A|-------------------------------------------------------------------------|
E|-------------------------------------------------------------------------|

Post-Chorus:
    C
e|-----------------------------------|
B|-----------------------------------|
G|-----------------------------------|
D|-55-555-555-555-555-555-555-55555--|
A|-77-777-777-777-777-777-777-77777--|
E|-----------------------------------|
   "No it never stops"

Post-Chorus Lead Guitar:
e|-----------------------|
B|--8s5-------5s3--------|
G|-----------------------|
D|-----------------------|
A|-----------------------|
E|-----------------------|

Verse 2
  N.C.
e|-------------------------------------------------|
B|-------------------------------------------------|
G|-------------------------------------------------|
D|-------------------------------------------------|
A|-------------------------------------------------|
E|-------------------------------------------------|
   "McCarren park when the culture crashed down" 

  G
e|-------------------------------------------------|
B|-------------------------------------------------|
G|-------------------------------------------------|
D|-00-000-000-000-000-000-000-000-000-000-000-000--|
A|-22-222-222-222-222-222-222-222-222-222-222-222--|
E|-------------------------------------------------|
                    "Copy after copy..." 
    C
e|----------------------------------|
B|----------------------------------|
G|----------------------------------|
D|-255-555-555-555-555-555-555-555--|
A|-077-777-777-777-777-777-777-777--|
E|----------------------------------|
      "Bet the future..."
    G
e|------------------------------------|
B|------------------------------------|
G|------------------------------------|
D|-500-000-000-000-000-000-000-00000--|
A|-722-222-222-222-222-222-222-22222--|
E|-----------------------------33333--|
      "I kept it secret..." 

Verse 2 Lead Guitar:
e|----7-7p5-5p3-3p2-0h2-0h2-3----7p5-5p3-3p2-0h2-0h2-12--|
B|-5s8---------------------------------------------------|
G|-------------------------------------------------------|
D|-------------------------------------------------------|
A|-------------------------------------------------------|
E|-------------------------------------------------------|

e|-12p10-10p8-8p7-5h7-5h7-7------7-----|
B|------------------------8----5s8-----|
G|-------------------------------------|
D|-------------------------------------|
A|-------------------------------------|
E|-------------------------------------|

Chorus 2:
Em            Bm
The days split to two sides
C
Flipped a quarter
      G
And said I can’t decide
C               D
Honey, it never stops
Em                Bm
The leaves laughed, the bed burned
C
I know I want you, 
        G
but I’m waiting my turn
C              D
Honey it never stops
             C
No it never stops
             G
No it never stops

Chorus Lead Guitar (x2): 
e|-----7-------7-------8-------3-------8-----8------12p10------10-------10-|
B|---8---8---7---7---8---8---3---3---8---8------10-------10----------------|
G|-9-------7-------9-------4-------9-------9---8-----------11----11-11h12--|
D|-------------------------------------------------------------------------|
A|-------------------------------------------------------------------------|
E|-------------------------------------------------------------------------|

Post-Chorus:
    C
e|----------------------------------------|
B|----------------------------------------|
G|---------------------------------0~~----|
D|---------------------------------0~~----|
A|-7-7-7-7-7-7-7-7-2-2-2-2-2-2-2-2-2~~----|
E|-8-8-8-8-8-8-8-8-3-3-3-3-3-3-3-3-3~~----|
   "No it never stops..."

Verse 3:
  N.C.
e|-------------------------------------------------|
B|-------------------------------------------------|
G|-------------------------------------------------|
D|-------------------------------------------------|
A|-------------------------------------------------|
E|-------------------------------------------------|
   "McCarren park when the beauty bled out" 

  G
e|-33-333-333-333-333-333-333-333-333-333-333-333--|
B|-33-333-333-333-333-333-333-333-333-333-333-333--|
G|-00-000-000-000-000-000-000-000-000-000-000-000--|
D|-00-000-000-000-000-000-000-000-000-000-000-000--|
A|-22-222-222-222-222-222-222-222-222-222-222-222--|
E|-33-333-333-333-333-333-333-333-333-333-333-333--|
                    "Twenty years..." 
    C
e|-300-000-000-000-000-000-000-000--|
B|-311-111-111-111-111-111-111-111--|
G|-000-000-000-000-000-000-000-000--|
D|-022-222-222-222-222-222-222-222--|
A|-233-333-333-333-333-333-333-333--|
E|-3--------------------------------|
      "You held my hand..."
    G
e|-033-333-333-333-333-333-333-33333--|
B|-133-333-333-333-333-333-333-33333--|
G|-000-000-000-000-000-000-000-00000--|
D|-200-000-000-000-000-000-000-00000--|
A|-322-222-222-222-222-222-222-22222--|
E|--33-333-333-333-333-333-333-33333--|
      "Said I'd never..." 

Chorus 3:
Em        Bm
And I knew right there
C
I could have you 
        G
but I’d have to share
C               D
Honey, it never stops
Em         Bm
So we slept the sun left
C
I dreamt nothingness 
   G
in shades of red 
C              D
Honey it never stops
             C
No it never stops

Chorus Lead Guitar (x2): 
e|-----7-------7-------8-------3-------8-----8------12p10------10-------10-|
B|---8---8---7---7---8---8---3---3---8---8------10-------10----------------|
G|-9-------7-------9-------4-------9-------9---8-----------11----11-11h12--|
D|-------------------------------------------------------------------------|
A|-------------------------------------------------------------------------|
E|-------------------------------------------------------------------------|

Post-Chorus 3:
e|------------------------------------------------------------------|
B|------------------------------------------------------------------|
G|------------------------------------------------------------------|
D|-55-555-555-555-500-000-044-444-355-555-555-555-500-000-044-444---|
A|-77-777-777-777-722-222-255-555-577-777-777-777-722-222-255-555---|
E|------------------------------------------------------------------|
   "No it never stops...."

e|-------------------|
B|-------------------|
G|-------------------|
D|-55-555-555-5555---|
A|-77-777-777-7777---|
E|-------------------|
   "No it never stops."
Suggest correction
comments
print report bad tab
2 comments total.
+1 reply
mxerscott 1,126 wrote on October 13 2012, 01:28 pm

this is really good.

+1 reply
DEVMACD 10 wrote on August 6 2013, 04:36 pm

Perfect except I'm 99.9% sure of this;

Chorus Lead Guitar:
e|-----3---------------3-------7-------8-----8-------12p10------10---------10-|
B|---5---5---3-------5---5---8---8---8---8-------10-------10------------------|
G|-4-------4---2-0-4-------7-------9-------9---11------------11----11-11h12---|
D|----------------------------------------------------------------------------|
A|----------------------------------------------------------------------------|
E|----------------------------------------------------------------------------|

Post-Chorus Lead Guitar:
e|-----------------------|
B|--7s5-------5s3--------|
G|-----------------------|
D|-----------------------|
A|-----------------------|
E|-----------------------|

guest
You may want to rate the tab now too:
select rating
Wanna post a correction for this tab? Suggest correction