Oops, an error
Loading. Please wait.

Pyotr tab

version 1
version 1

Whole song

21,923 views 90 this week
5 commentsread comments
1 2 3 4 5
x 24
add to favorites
×
Save as Personal and add changes to this tab that will be seen only by you. Learn more ›
×
You can save this tab as Personal to edit and correct it or add notes. All changes will be seen only by you. Learn more »
launch autoscroll
font size
0
reset
how to read this tab
guitar tuner
edit
Autoscroll
slow
fast
+/-
esc
set tempo
stop
D#|------------------------------------------------------------------------|
A#|------------------------------------------------------------------------|
F#|------------------------------------------------------------------------|
C#|--------0------------0------------0--------------0----------------------|
G#|------7---7--------5---5--------3----2-------0h2------------------------|
D#|----8------------7------------5------3-----3----------------------------|

D#|------------------------------------------------------------------------|
A#|------------------------------------------------------------------------|
F#|------------------------------------------------------------------------|
C#|--------0------------0---------------------------0----------------------|
G#|------7---7--------5---5------3s5s3--2-------0h2------------------------|
D#|----8------------7------------5s7s5--3-----3----------------------------|

************************************

| h  Hammer-on
| s  Slide

************************************
Alternate back and forth between the two tabs above until the song is over.

[Verse 1: Peter the Great]
Bare breasted, you make love in the turret
I feel each single thrust that you take
In silence I watch on from the bastion
Entranced, I make myself look away

[Verse 2: Willem Mons]
Bare breasted making love in the turret
I'll never love nobody other than you
And in silence I can feel as you quiver
Keep quiet or you know what he will do

[Verse 3: Peter the Great]
I know I am not the man you desire
I know you think that I am some kind of fool
And I know you would gaze in his eyes forever
I've figured out just how to give that to you

[Chorus]
Mm, mm

[Verse 4: Willem Mons]
When he found us in the western wing sleeping
You cried at all the things you thought he would do
And I tell you in the heat of the scuffle
Nobody ever takes my eyes off of you

[Verse 5: Peter the Great]
And oh Catherine, how you run me my fever
Oh Catherine, tell me was it worth it for him?
These gallows are no place for the stubborn
Just you and your lover as a dark souvenir

[Chorus]
Mm, mm

[Verse 6: Willem Mons]
She sees me on display inside the museum
Comes every morning and again when she can
Strokes her blistered hand across my glass container
Saying "It's so good to see you back here again."

[Chorus]
Mm, mm

            
            
Suggest correction
Creating personal tab
Creating personal tab
You can edit any tab online and save it as your Personal.

You can edit, replace or remove any tab part or add personal notes – all changes will be seen only by you.

Personal tabs can be accessed anytime from any device, even offline.
Learn more »
comments
print report bad tab
5 comments total. Showing first comments.
+1 reply
18zzz18 61 Feb 11, 2013 05:18 PM

Tabs spot on but some of the lyrics are off I think.

+2 reply
the.colour.gray 10 Apr 09, 2013 07:08 PM

i never tuned my guitar down a half step, but it sounded much better being:
D: --0- --0- --0 -
A: -7-7 -5-5- -7- 3
E: 8-- 7--- 5-- 2

+1 reply
friedmaj 10 Mar 21, 2015 03:40 PM

name of the song is pyotr
lol

guest
You may want to rate the tab now too:
select rating
Wanna post a correction for this tab? Suggest correction