Oops, an error
Loading. Please wait.

Attitude Tab

version 3
version 3

Whole song

Interactive

840 views 6 this week
no commentswrite comment
1 2 3 4 5
please rate
add to favorites
launch autoscroll
font size
0
reset
how to read this tab
guitar tuner
Autoscroll
slow
fast
+/-
esc
set tempo
stop
Help us to improve Ultimate-Guitar.com Take our survey!
×
Author
Difficulty
novice
Band - Bad Brains
Song - Attitude
Album - Bad Brains

Tabbed By: Tyler Freear (SumFX)

Tuning: Standard (E A D G B E)

Really Awesome Track Which Shows The Bad Brains P.M.A!

Intro
For The Intro You Can Simplify It Like So:
|------------------------|
|------------------------|
|------------1010-999999-|
|-1010101010-1010-999999-|
|-1010101010-8-8--777777-|
|-8-8-8-8-8--------------|

Or You Can Play Like Dr.Know:
Listen For The Tremolo Picking On Those Single Notes (11's & 9's)
|-------------------------------------|
|-------------------------------------|
|------------1010---------------------|
|-1010101010-1010-99h11p99h11p99h11p9-|
|-1010101010-8-8----------------------|
|-8-8-8-8-8---------------------------|

Chorus
|----------------------------------------|
|----------------------------------------|
|-----------------------------------1414-|
|-1010-1212-1010-77--1010-1212-1010-1414-|
|-1010-1212-1010-77--1010-1212-1010-1212-|
|-8-8--1010-8-8--55--8-8--1010-8-8-------|

Bridge
|----------|
|----------|
|----------|
|-5554433--| x4
|-5554433--|
|-3332211--|

Outro (Guitar Trade Off)
|--------------------|
|--------------------|
|--------------------|
|-10-12-14-15-14-10--|
|-10-12-14-15-14-10--|
|-8--10-12-13-12-8---|

A5 
|-------------------|
|-------------------|
|-------------------|
|-7-----------------|
|-7-----------------|
|-5-----------------|

Intro x4
Chorus 
Bridge
Chorus
Bridge
Chorus
Intro x4
Chorus
Bridge
Chorus
Outro (Guitar Tradeoff)
A5

Great Song Off A Fantastic Hardcore Masterpiece!
Suggest correction
Give kudos to tab author, rate the tab!
1 2 3 4 5
comments
print report bad tab
guest
You may want to rate the tab now too:
select rating
Please do not post tabs as comments. Select "correction" instead!