Oops, an error
Loading. Please wait.

How Low Can A Punk Get Bass

version 1
version 1

Whole song

Interactive

1,809 views 6 this week
no commentswrite comment
1 2 3 4 5
1 last vote to show rating
add to favorites
launch autoscroll
font size
0
reset
guitar tuner
Autoscroll
slow
fast
+/-
esc
set tempo
stop
Author
Difficulty
intermediate
This is my first tab and it sounds right to me. This is a bad ass song. Why wasn't it already tabbed?!

Intro(1x)
G---------|
D------1--|
A--1-3----|
E---------|

Main Riff(6x)
G-----------------------------------| 
D-----------------------------------|
A--3-3---------2-2-1-1--------------|
E------3-3-2-2---------1-1-0-0-5-5--|

G-------------------------------------------------------------------------| 
D-------------------------------------------------------------------------|
A-------------------------------------------------------------------------|
E--4-4-4-4-4-4-4-4-3h4-4-4-4-4-4-4-4-3h4-4-4-4-4-4-4-4-3h4-4-4-4-4-4-4-4--|

After 6th time slide down on the open A. (Listen to song)

Chorus(8x)
G-----------------|
D--------1-1-1-1--|
A--1-1-3----------|
E-----------------|

Main Riff(4x)
Slide
Chorus(8x)
Main Riff(4x)
Slide
Chorus(7x)

Last Chorus
G------------|
D--------1~--|
A--1-1-3-----|
E------------|

End
G--------------------------------------------|
D--------------------------------------------|
A--3-3-3-3-3-3---------------1-1-1-1-1-1--0--|
E---------------2-2-2-2-2-2------------------|

Let me know how it is.


Suggest correction
Give kudos to tab author, rate the tab!
1 2 3 4 5
comments
print report bad tab
guest
You may want to rate the tab now too:
select rating
Wanna post a correction for this tab? Suggest correction