Oops, an error
Loading. Please wait.

I Against I Tab

version 2
version 2

Whole song

Interactive

2,519 views 27 this week
no commentswrite comment
1 2 3 4 5
please rate
add to favorites
launch autoscroll
font size
0
reset
how to read this tab
guitar tuner
Autoscroll
slow
fast
+/-
esc
set tempo
stop
Help us to improve Ultimate-Guitar.com Take our survey!
×
Contributor
IommiPage 2,506
 Intro
E|--/--13/-------------------------------------------------------------------|
B|---------------------------------------------------------------------------|
G|-----------------------5----------------10-10------------------------------|
D|----------6-3---8-8-8--5--5-6--3-3-3-3--10-10------------------------------|
A|----------6-3---8-8-8--3--5-6--3-3-3-3--8--8-------------------------------|
E|----------4-1---6-6-6-----3-4--1-1-1-1-------------------------------------|

   Verse                                Chorus
E|------------------------------------|--------------------------------------|
B|------------------------------(x4)--|--------------------------------(x2)--|
G|---------5--------------------------|---------5----------------------------|
D|--8-8-8--5--5-6--3-3-3-3-3-3--------|--8-8-8--5--5-6--3-3-3-3-3-3----------|
A|--8-8-8--3--5-6--3-3-3-3-3-3--------|--8-8-8--3--5-6--3-3-3-3-3-3----------|
E|--6-6-6-----3-4--1-1-1-1-1-1--------|--6-6-6-----3-4--1-1-1-1-1-1----------|

             Break/Outro
E|---------|-----------------------------------------------------------(x )--|
B|---------|-----------------------------------------------------------------|
G|--7---7--|--7-7-7---------5--8-8-8---------5--7-7-7-----------5-5-5-5-5-5--|
D|--7-5-7--|--7-7-7--3-3-3--5--8-8-8--6-6-6--5--7-7-7--3-3-3-3--5-5-5-5-5-5--|
A|--5-5-5--|--5-5-5--3-3-3--3--6-6-6--6-6-6--3--5-5-5--3-3-3-3--3-3-3-3-3-3--|
E|----3----|---------1-1-1------------4-4-4------------1-1-1-1---------------|

E|--------|---------------|---------------------------------|----------------|
B|--------|----------(x )-|----------------------------(x )-|----------(x )--|
G|--3--3--|---------------|-----------8-8-7-----------------|----------------|
D|--3--3--|--6-6-6-6------|--8-8-8-8--8-8-7--6-6-6-6-6------|--4-4-4-2-------|
A|--1--1--|--6-6-6-6------|--8-8-8-8--6-6-5--6-6-6-6-6------|--4-4-4-2-------|
E|--------|--4-4-4-4------|--6-6-6-6---------4-4-4-4-4------|--2-2-2-0-------|

E|---------------------------------|---------------|-----------------|-------||
B|----------------------------(x )-|----------(x )-|------------(x2)-|-------||
G|-----------8-8-7-----------------|---------------|-----------------|-------||
D|--8-8-8-8--8-8-7--6-6-6-6-6------|--4-4-4-2------|-----------------|--5-4--||
A|--8-8-8-8--6-6-5--6-6-6-6-6------|--4-4-4-2------|--3/0-4/3/0------|--5-4--||
E|--6-6-6-6---------4-4-4-4-4------|--2-2-2-0------|-----------------|--3-2--||

comments
We did not receive enough feedback on this tab! Please rate:
print report bad tab
1 2 3 4 5
I want to post or [tab]
guest
You may want to rate the tab now too:
select rating
Please do not post tabs as comments. Select "correction" instead!