Oops, an error
Loading. Please wait.

Pay To Cum Tab

version 1
version 1

Whole song

Interactive

12,551 views 15 this week
5 commentsread comments
1 2 3 4 5
x 5
add to favorites
launch autoscroll
font size
0
reset
how to read this tab
guitar tuner
Autoscroll
slow
fast
+/-
esc
set tempo
stop
Help us to improve Ultimate-Guitar.com Take our survey!
×
Author
Tuning
E A D G B E
Bad Brains- Pay to Cum

This is probably the Bad Brains most famous song.  Not that hard, just very fast.

Intro
e--------------------------------------------------------------|
B--------------------------------------------------------------|
G--------------------------------------------------------------|
D--55555-77777-------55555-77777-------------------------------|
A--33333-55555-55555-33333-55555-55555-------------------------|
E--------------33333-------------33333-------------------------|
These aren't the exact strumming patterns.  Play this twice by itself, and 4 more times 
bass and drums come in.

Verse
e---------------------------------------------------------------|
B---------------------------------------------------------------|
G---------------------------------------------------------------|
D---------------------------------------------------------------|
A--3333333333---------------------------------------------------|
E--1111111111---------------------------------------------------|
Just play this chord very fast palm-muted.  Alternate picking makes it a lot easier.  
to the song for timing and strumming.  After the chord play the intro riff twice.

Chorus
e--------------------------------------------------------------|
B--------------------------------------------------------------|
G--------------------------------------------------------------|
D------10-9----------------- x3 -------------------------------|
A-------8-7-10-7-----------------------------------------------|
E------------8-5-----------------------------------------------|

Chorus continued
e--------------------------------------------------------------|
B--------------------------------------------------------------|
G--------------------------------------------------------------|
D------10-9------5-4-------------------------------------------|
A-------8-7-10-7-3-2-5-2---------------------------------------|
E------------8-5-----3-0---------------------------------------|
It may look like a lot of notes, but I'm pretty sure it's right.  Just play the end of 
chorus very fast and listen to the song for rhythms.

After the chorus play the verse again and then another chorus.  Play the intro twice and you're done.
Suggest correction
comments
print report bad tab
5 comments total. Showing first comments.
+1 reply
opivy21 130 Jan 25, 2006 07:30 PM

I accidentally put the intro on the d string. It should be...

e --------------------------------------------
B---------------------------------------------
G---------------------------------------------
D---77777-99999-------------------------------
A---55555-77777-77777-------------------------
E---------------55555

0 reply
Notoriousdoc 195 Oct 15, 2006 07:03 AM

Good tab

0 reply
opivy21 130 Oct 25, 2006 08:20 PM

Thanks.

guest
You may want to rate the tab now too:
select rating
Wanna post a correction for this tab? Suggest correction