Oops, an error
Loading. Please wait.

Right Brigade Bass Tab

version 4
version 4

Whole song

Interactive

452 views 1 this week
no commentswrite comment
1 2 3 4 5
please rate
add to favorites
launch autoscroll
font size
0
reset
guitar tuner
Autoscroll
slow
fast
+/-
esc
set tempo
stop
Help us to improve Ultimate-Guitar.com Take our survey!
×
Author
----------------------------------------------------------------------------
                             Right Brigade - Bad Brains
----------------------------------------------------------------------------

Tabbed By : Gnar_6_kill
e-mail: gnar_6_kill@hotmail.com

Tuning: Standard - E,A,D,G

There is at least 2 different studio recorded versions of this song.
The one that I've tabbed out is from the album Bad Brains (1982)
The other version is from Rock for Light (1983) and I beleive you play
it a note higher.

BAD BRAINS (1982)

Intro
G|-------------------------------------|
D|-------------------------------------|
A|-3-3-3333-6-6-6666-------------------|
E|-------------------3-3-3333-3-3-3333-|

Verse
G|--------------------------------|
D|--------------------------------|
A|-3-3-333---------2-2-222--2-2-2-|
E|---------2-2-222----------------|

Chorus
G|-----------------------|
D|-----------------------|
A|-7-777777--------------|
E|----------8-8-7-777777-|

Outro
G|---------------------------------------|
D|---------------------------------------|
A|---------------------------------------|
E|-2222222222222222-444-555-444-555-4400-|


| /  slide up
| \  slide down
| h  hammer-on
| p  pull-off
| ~  vibrato
| +  harmonic
| x  Mute note
============================================================================
Suggest correction
What's this?
You can suggest a correction to this tab. Community and Mods will review your correction and vote to approve or reject it.
comments
We did not receive enough feedback on this tab! Please rate:
print report bad tab
1 2 3 4 5
guest
You may want to rate the tab now too:
select rating
Please do not post tabs as comments. Select "correction" instead!