Oops, an error
Loading. Please wait.

Shes Calling You Tab

2,050 views 6 this week
no commentswrite comment
1 2 3 4 5
accurate
x 3
add to favorites
launch autoscroll
font size
0
reset
how to read this tab
guitar tuner
Autoscroll
slow
fast
+/-
esc
set tempo
stop
Help us to improve Ultimate-Guitar.com Take our survey!
×
Author
Intro: Bass

G-|----------------------------------|----------------------------|
D-|----------------------------------|----------------------------|
A-|----------5--3----3-3--3-3--2-----|---------2----2-2--2-2------|
E-|--0--0-0-----------------------5--|--5-5-------------------5---|

G-|----------------------------------|----------------------------|
D-|----------------------------------|----------------------------|
A-|----------5--3----3-3--3-3--2-----|----------------------------|
E-|--0--0-0-----------------------5--|--5-5----3----3-3--3-3--2---|

Guitar:

    Em7                 w/bar                                          w/bar
e-|---------------|-------------|-----------------------------|----|---------------|
B-|--8----8--7----|-------------|-----------------------------|--20------)~~~------|
G-|--7----7--7----|--7--5~~~----|------------------------16--|--------19-----------|
D-|--9----9--7----|--7--5~~~----|--14-14-17-17-14-14--14------|--------------------|
A-|--7------------|--5--3~~~----|-----------------------------|--------------------|
E-|---------------|-------------|-----------------------------|--------------------|
                                   P.M---------------------------------------------|

    Em7                 w/bar                                                 w/bar
e-|---------------|-------------|-----------------------------|----------------------|--|
B-|--8----8--7----|-------------|-----------------------------|--------------<5>~~~-----|
G-|--7----7--7----|--7--5~~~----|------------------------16--|------<5>-----------------|
D-|--9----9--7----|--7--5~~~----|--14-14-17-17-14-14--14------|--<5>-----<5>------------|
A-|--7------------|--5--3~~~----|-----------------------------|-------------------------|
E-|---------------|-------------|-----------------------------|-------------------------|
                                   P.M--------------------------------------------------|

Verse: Palm-mute trough out the verse

     E       D5 C5           B5 A5    A5     B5             A5
e-|--------------------------------|----------------------------|
B-|--------------------------------|----------------------------|
G-|*-------------------------------|----------------------------|
D-|*---------7--5--5-5--5-5--4--2--|--2-2----4----4-4--4-4--2---|
A-|----------5--3--3-3--3-3--2--0--|--0-0----2----2-2--2-2--0---|
E-|--0--0-0------------------------|----------------------------|

     E       D5 C5           B5 A5    A5     G5        F#5 (x3)
e-|--------------------------------|----------------------------|
B-|--------------------------------|----------------------------|
G-|--------------------------------|--------------------------*-|
D-|----------7--5--5-5--5-5--4--2--|--2-2---------------------*-|
A-|----------5--3--3-3--3-3--2--0--|--0-0----5----5-5--5-5--4---|
E-|--0--0-0------------------------|---------3----3-3--3-3--2---|

     E       D5 C5           B5 A5    A5     G5        F#5
e-|--------------------------------|----------------------------|
B-|--------------------------------|----------------------------|
G-|--------------------------------|----------------------------|
D-|----------7--5--5-5--5-5--4--2--|--2-2-----------------------|
A-|----------5--3--3-3--3-3--2--0--|--0-0----5-5--5----4-4--4---|
E-|--0--0-0------------------------|---------3-3--3----2-2--2---|


Chorus: It is in 4/4 all the time execpt
in bar 5 where it is 2/4

     E5                           E5
e-|----------------------------|------------------------------|
B-|----------------------------|------------------------------|
G-|--9-9--9--------------------|--9-9--9----------------------|
D-|--9-9--9--------------------|--9-9--9----------------------|
A-|--7-7--7--------------------|--7-7--7----------------------|
E-|----------0--0--0--0--0--0--|----------0--0--0--0--0--0----|
             P.M------------|             P.M-----------------|

     E5                           N.C                 (2/4)
e-|----------------------------|--------------------|----------------|
B-|----------------------------|--------------------|----------------|
G-|--9-9--9--------------------|--------------------|----------------|
D-|--9-9--9--------------------|--------------------|----------------|
A-|--7-7--7--------------------|--------------------|----------------|
E-|----------0--0--0--0--0--0--|--3--5--3--2~~~--0--|--0--0--0--0----|
             P.M------------|                          P.M-----------|

     E5                           E5
e-|----------------------------|------------------------------|
B-|----------------------------|------------------------------|
G-|--9-9--9--------------------|--9-9--9----------------------|
D-|--9-9--9--------------------|--9-9--9----------------------|
A-|--7-7--7--------------------|--7-7--7----------------------|
E-|----------0--0--0--0--0--0--|----------0--0--0--0--0--0----|
             P.M------------|             P.M-----------------|

     E5                           N.C
e-|----------------------------|----------------------|
B-|----------------------------|----------------------|
G-|--9-9--9--------------------|----------------------|
D-|--9-9--9--------------------|----------------------|
A-|--7-7--7--------------------|----------------------|
E-|----------0--0--0--0--0--0--|--3--5--3--2~~~--0----|
             P.M--------------------------------------|

     E                          F5      G5
e-|--------------------------|------------------------|
B-|--------------------------|------------------------|
G-|--------------------------|------------------------|
D-|--------------------------|------------------------|
A-|--------------------------|--3--3----5--5----------|
E-|--0--0--0--0--0--0--0--0--|--1--1----3--3----------|
     P.M----------------------------------------------|
Suggest correction
Give kudos to tab author, rate the tab!
1 2 3 4 5
comments
print report bad tab
guest
You may want to rate the tab now too:
select rating
Please do not post tabs as comments. Select "correction" instead!