Oops, an error
Loading. Please wait.

Supertouch Shitfit Tab

1,819 views 3 this week
no commentswrite comment
1 2 3 4 5
excellent!
x 5
add to favorites
launch autoscroll
font size
0
reset
how to read this tab
guitar tuner
Autoscroll
slow
fast
+/-
esc
set tempo
stop
Help us to improve Ultimate-Guitar.com Take our survey!
×
Author
Difficulty
SumFX 2,506
novice
Band - Bad Brains
Song - Supertouch/Shitfit
Album - Bad Brains

Tabbed By: Tyler Freear (SumFX)

Tuning: Standard (E A D G B E)

Awesome Tune(s) From The Brains 1st Album.
With Some Mad (But Easy) Solos!

/=Slide
.=Palm Mute
p=Pull Off
h=Hammer On
r=Release Bend Back To Original Note
b=Bend
(x)= Bend Note To The Pitch Inside The Brackets
v=Vibrato

Verse
|-------------------------------------------------------|
|-------------------------------------------------------|
|-77-99-77-999--77-99-77-999----------------------------|
|-77-99-77-999--77-99-77-999--77-99-77-999-77-99-77-999-|
|-55-77-55-777--55-77-55-777--77-99-77-999-77-99-77-999-|
|-----------------------------55-77-55-777-55-77-55-777-|

Chorus
You Could Play These As 5th Chords If You Want,
But I'm Sure Its Just Single Notes.
|--------------|
|--------------|
|--------------|
|--------------|
|----33--------|
|-55----3-00---|

Solo
Not Perfect But It Follows The Guidlines Of What He Is Playing
Remember That Alot Of This Is Tremolo Picked!

|-/12121212-/12121212-/12121212-/12121212-|
|-/12121212-/12121212-/12121212-/12121212-|
|-/12121212-/12121212-/12121212-/12121212-|
|-----------------------------------------|
|-----------------------------------------|
|-----------------------------------------|

|-121212-15-12----12---1212-15-12----12--1212-15-12----12-15(17)r--|
|--------------15-----------------15----------------15-------------|
|------------------------------------------------------------------|
|------------------------------------------------------------------|
|------------------------------------------------------------------|
|------------------------------------------------------------------|

|-1212h15p12-------------------------|
|------------1515p12-----------------|
|--------------------14b(16)r-12-----|
|--------------------------------14--|
|------------------------------------|
|------------------------------------|

|-------------------------------------------------------------|
|-------------------------------------------------------------|
|-------------------------------------------------------------|
|--------------------------------------------------1515p17p15-|
|-1515h17p1515h17p15---------------------1515h17p15-----------|
|--------------------1515h17p1515h17p15-----------------------|

|-----------------------------------1515-18b(20)-|
|------------------1515h18p15h18p15--------------|
|-1515h17p15h17p15-------------------------------|
|------------------------------------------------|
|------------------------------------------------|
|------------------------------------------------|

Here Comes The SHITFIT!
Riff 1
|----------x3-------------------|------------|
|-------------------------------|------------|
|------------------4-5----------|------------|
|-2222222222222222-4-5----------|-2----------|
|-2222222222222222-2-3----------|-2----------|
|-0000000000000000-----0-3-2-0--|-0----------|
  ................

Riff 2
|-----------------|
|-----------------|
|-----------------|
|-999-x-----------| x4
|-777-x-10-9-5-2--|
|-------8--7-3-0--|

Riff 3
|--------------------------------------------------------------|
|--------------------------------------------------------------|
|-555-666-555-666-555-666-555-6--888-999-888-999-888-999-888-9-|
|-555-666-555-666-555-666-555-6--888-999-888-999-888-999-888-9-|
|-333-444-333-444-333-444-333-4--666-777-666-777-666-777-666-7-|
|--------------------------------------------------------------|

Riff 4
|----------------------------------------|
|----------------------------------------|
|-444-555-444-555--666-777-666-777-------|
|-444-555-444-555--666-777-666-777--2----|
|-222-333-222-333--444-555-444-555--2----|
|-----------------------------------0----|

Riff 5
|-------------------------------|
|-------------------------------|
|------------------4-5----------| x2
|-2222222222222222-4-5----------|
|-2222222222222222-2-3----------|
|-0000000000000000-----0-3-2-0--|
  ................
|----------x2-------------------|------------|
|-------------------------------|------------|
|------------------4-5----------|------------|
|-2222222222222222-4-5----------|-2----------|
|-2222222222222222-2-3----------|-2----------|
|-0000000000000000-----0-3-2-0--|-0----------|
  ................
2nd Solo
Not Perfect But It Follows The Guidlines

|-121212-15-12----12--121212-15-12----12--121212-15----12--|
|--------------15------------------15---------------15-----|
|----------------------------------------------------------|
|----------------------------------------------------------|
|----------------------------------------------------------|
|----------------------------------------------------------|

|-121212-15-12----12-|
|--------------15----|
|--------------------|
|--------------------|
|--------------------|
|--------------------|

|-15b(17)--15b(17)-12----12----|---------------------------------------|
|---------------------15----12-|-15b(17)r-12---------------------------|
|------------------------------|-------------14--14-14--14b(16)r-12----|
|------------------------------|------------------------------------14-|
|------------------------------|---------------------------------------|
|------------------------------|---------------------------------------|

|-------------------------15p12------|
|-------------12h15p12h15-------15---|
|-12h14p12h14------------------------|
|------------------------------------|
|------------------------------------|
|------------------------------------|

|-15/171717/1818/1919/2020/2121/2222/232323/24b(26)-24b-24b-24b-24bv-|
|--------------------------------------------------------------------|
|--------------------------------------------------------------------|
|--------------------------------------------------------------------|
|--------------------------------------------------------------------|
|--------------------------------------------------------------------|

Outro
|----------------------------|
|----------------------------|
|-999999999999--999999999999-|
|-999999999999--999999999999-|
|-777777777777--777777777777-|
|----------------------------|

Outro Continued
|------x3---------|-----------------|
|-----------------|-----------------|
|-----------------|-----------------|
|-999-x-----------|-999-x-----------|
|-777-x-10-9-5-2--|-777-x-10-9-7----|
|-------8--7-3-0--|-------8--7-5----|

Structure
Verse 
Chorus x4
Verse
Chorus x4
Verse
Chorus x4
Solo (Rhythm Plays Verse x2)
Chorus x4

Riff 1
Riff 2
Riff 3
Riff 4
Riff 1 
Riff 5 w/2nd Solo
Outro

Phew!, Hope You Enjoyed This Tab
Rate & Comments Please.
Suggest correction new What's this?
You can suggest a correction to this tab. Community and Mods will review your correction and vote to approve or reject it.
comments
print report bad tab
guest
You may want to rate the tab now too:
select rating
Please do not post tabs as comments. Select "correction" instead!