Oops, an error
Loading. Please wait.

Lorraine Bass Tab

612 views 1 this week
1 commentread comment
1 2 3 4 5
2 more votes to show rating
add to favorites
launch autoscroll
font size
0
reset
guitar tuner
Autoscroll
slow
fast
+/-
esc
set tempo
stop
Help us to improve Ultimate-Guitar.com Take our survey!
×
Author
Difficulty
intermediate
Lorraine (Bassline)
As recorded by Bad Manners

Transcribed by Keaten Higham

G |------------------------------------------------|
D |----------------5-3-0--0-0--3--0-0--------------|
A |----0-3-5-6-6----------------------3-3----------|
E |6-6--------------------------------------0-3-5--|

G |------------------------------------------------|
D |----------------5-3-0--0-0--3--0-0--------------|
A |----0-3-5-6-6----------------------3-3----------|
E |6-6--------------------------------------0-3-5--|

G |------------------------------------------------|
D |----------------5-3-0--0-0--3--0-0--------------|
A |----0-3-5-6-6----------------------3-3----------|
E |6-6--------------------------------------0-3-5--|

G |------------------------------------------------|
D |----------------5-3-0--0-0--3--0-0--------------|
A |----0-3-5-6-6----------------------3-3----------|
E |6-6--------------------------------------0-3-5--|

G |------------------------------------------------|
D |----------------5-3-0--0-0--3--0-0--------------|
A |----0-3-5-6-6----------------------3-3----------|
E |6-6--------------------------------------0-3-5--|

G |------------------------------------------------|
D |----------------5-3-0--0-0--3--0-0--------------|
A |----0-3-5-6-6----------------------3-3----------|
E |6-6--------------------------------------0-3-5--|

G |------------------------------------------------|
D |----------------5-3-0--0-0--3--0-0--------------|
A |----0-3-5-6-6----------------------3-3----------|
E |6-6--------------------------------------0-3-5--|
Suggest correction
Give kudos to tab author, rate the tab!
1 2 3 4 5
comments
print report bad tab
1 comment total.
0 reply
sinman2112 10 Jun 28, 2014 03:38 PM

Clearly wrong.

guest
You may want to rate the tab now too:
select rating
Wanna post a correction for this tab? Suggest correction