Oops, an error
Loading. Please wait.

Lorraine Bass

711 views 3 this week
2 commentsread comments
1 2 3 4 5
2 more votes to show rating
add to favorites
launch autoscroll
font size
0
reset
guitar tuner
×
Best way to learn
"Lorraine"
Autoscroll
slow
fast
+/-
esc
set tempo
stop
Author
Difficulty
intermediate
Lorraine (Bassline)
As recorded by Bad Manners

Transcribed by Keaten Higham

G |------------------------------------------------|
D |----------------5-3-0--0-0--3--0-0--------------|
A |----0-3-5-6-6----------------------3-3----------|
E |6-6--------------------------------------0-3-5--|

G |------------------------------------------------|
D |----------------5-3-0--0-0--3--0-0--------------|
A |----0-3-5-6-6----------------------3-3----------|
E |6-6--------------------------------------0-3-5--|

G |------------------------------------------------|
D |----------------5-3-0--0-0--3--0-0--------------|
A |----0-3-5-6-6----------------------3-3----------|
E |6-6--------------------------------------0-3-5--|

G |------------------------------------------------|
D |----------------5-3-0--0-0--3--0-0--------------|
A |----0-3-5-6-6----------------------3-3----------|
E |6-6--------------------------------------0-3-5--|

G |------------------------------------------------|
D |----------------5-3-0--0-0--3--0-0--------------|
A |----0-3-5-6-6----------------------3-3----------|
E |6-6--------------------------------------0-3-5--|

G |------------------------------------------------|
D |----------------5-3-0--0-0--3--0-0--------------|
A |----0-3-5-6-6----------------------3-3----------|
E |6-6--------------------------------------0-3-5--|

G |------------------------------------------------|
D |----------------5-3-0--0-0--3--0-0--------------|
A |----0-3-5-6-6----------------------3-3----------|
E |6-6--------------------------------------0-3-5--|
Suggest correction
Give kudos to tab author, rate the tab!
1 2 3 4 5
comments
print report bad tab
2 comments total.
0 reply
sinman2112 10 Jun 28, 2014 11:38 AM

Clearly wrong.

0 reply
MotoMartin 10 a day ago

It's close try:

-------------------------------------------------
----------------5-3--------3---------------------
-----0-3-5--6-6-----6--5-5---6-5---3-3----------
-6-6-----------------------------------1-3-5-----

guest
You may want to rate the tab now too:
select rating
Wanna post a correction for this tab? Suggest correction