Oops, an error
Loading. Please wait.

Special Brew Tab

8,764 views 9 this week
no commentswrite comment
1 2 3 4 5
please rate
add to favorites
launch autoscroll
font size
0
reset
how to read this tab
guitar tuner
Autoscroll
slow
fast
+/-
esc
set tempo
stop
Help us to improve Ultimate-Guitar.com Take our survey!
×
Author
Difficulty
intermediate
G   :  x-x-x-4-3-3
D/F#:  x-x-x-2-3-2
C   :  x-x-x-5-5-3
D   :  x-x-x-7-7-5
G*  :  x-x-x-7-8-7
C*  :  x-x-x-9-8-8
D*  :  x-x-x-11-10-10

Intro: 

E|--------------|----------------|
B|--------------|----------------|
G|--------------|----------------|
D|--------------|----------------|  2x
A|------2--5----|5-5-5-3-2-------|
E|3-3-3---------|-----------5----|


Chorus:

     G         D/F#          C           D     
E|x--3--x--3--x--2--x--2--x--3--x--3--x--5--x--5--|
B|x--3--x--3--x--3--x--3--x--5--x--5--x--7--x--7--|
G|x--4--x--4--x--2--x--3--x--5--x--5--x--7--x--7--| 4x
D|x-----x-----x-----x-----x-----x-----x-----x-----|
A|x-----x-----x-----x-----x-----x-----x-----x-----|
E|x-----x-----x-----x-----x-----x-----x-----x-----|


Couplet:

     G                       D           C
E|x--3--x--3--x--3--x--3--x--5--x--5--x--3--x--3--|
B|x--3--x--3--x--3--x--3--x--7--x--7--x--5--x--5--|
G|x--4--x--4--x--4--x--4--x--7--x--7--x--5--x--5--|   8x
D|x-----x-----x-----x-----x-----x-----x-----x-----|
A|x-----x-----x-----x-----x-----x-----x-----x-----|
E|x-----x-----x-----x-----x-----x-----x-----x-----|


G                                 D              C
  I love you, yes I do, 'cause I know that you love me too
G                                D            C    
  I love you , yes I do, gonna spend all my money on you 
G                                   D          C 
  Everyday , when I say , that I'm not gonna take any more 
G                                 D                  C 
Its okay, don't go away, I'll be back when you're closing the door


--Chorus--


--Couplet--

play the same as in the last couplet

I need some more to restore all the feelings that I get from you 
And I want more, give me more, all I want is a barrel of you 
I love you, yes I do, 'cause I know that you love me too c
I love you, yes I do, gonna spend all my money on you 


--Trompet solo--

play the same as you play in couplet.


G                              D           C
  And I don't care when they stare at the way that I'm always with you 
G                         D             C
  We're a pair, its not fair when they say we're a special crew


--Chorus--


--Bridge--

twice as fast as the rest.

     G           C           D           C
E|x--3--x--3--x--3--x--3--x--5--x--5--x--3--x--3--|
B|x--3--x--3--x--5--x--5--x--7--x--7--x--5--x--5--|
G|x--4--x--4--x--5--x--5--x--7--x--7--x--5--x--5--|  4x
D|x-----x-----x-----x-----x-----x-----x-----x-----|
A|x-----x-----x-----x-----x-----x-----x-----x-----|
E|x-----x-----x-----x-----x-----x-----x-----x-----|

  G*      C*      D*          C*
E|7-7-7-7-8-8-8-8-10-10-10-10-8-8-8-8-|
B|8-8-8-8-8-8-8-8-10-10-10-10-8-8-8-8-|
G|7-7-7-7-9-9-9-9-11-11-11-11-9-9-9-9-|  8x
D|------------------------------------|
A|------------------------------------|
E|------------------------------------|

G*     C*            D*             C*         G*      C* D* C*
  everyday , when I say , that I'm not gonna take any more
G*     C*            D*            C*                 G*        C* D* C*
  Its okay, don't go away, I'll be back when you're closing the door
G*           C*         D*             C*            G*       C* D* C*     
  need some more to restore all the feelings that I get from you 
G*            C*            D*          C*         G*       C* D* C*
  and I want more, give me more, all I want is a barrel of you 

Chorus:

And I love you, yes I do, 'cause I know that you love me too
Suggest correction
Give kudos to tab author, rate the tab!
1 2 3 4 5
comments
print report bad tab
guest
You may want to rate the tab now too:
select rating
Please do not post tabs as comments. Select "correction" instead!