Oops, an error
Loading. Please wait.

21St Century Digital Boy Bass Tab

version 1
version 1

Whole song

Interactive

9,132 views 21 this week
1 commentread comment
1 2 3 4 5
excellent!
x 9
add to favorites
launch autoscroll
font size
0
reset
guitar tuner
Autoscroll
slow
fast
+/-
esc
set tempo
stop
Help us to improve Ultimate-Guitar.com Take our survey!
×
Author
tonedeafidiot 39,216
#----------------------------------PLEASE NOTE---------------------------------#
#This file is the author's own work and represents their interpretation of the #
#song. You may only use this file for private study, scholarship, or research. #
#------------------------------------------------------------------------------#

21ST CENTURY (DIGITAL BOY) (Bassline)
As recorded by Bad Religion
(From the 1994 Album STRANGER THAN FICTION)

Transcribed by LocoXXL
	

Words and Music by Brett Gurewitz

Gtr I (E A D G) - 'Bass'

 Intro                                1st Verse
  Q=130
 4/4
  Gtr I
  E E E E E E E E   E E E E E E E E    E E Q  E E Q    E E Q  E E E E
|-----------------|-----------------||---------------|-----------------|
|-----------------|-----------------||---------------|-----------------|
|-4-4-4-4-4-4-4-4-|-4-4-4-4-4-4-4-4-||-4-4-----------|-----------------|
|-----------------|-----------------||--------0-0----|-2-2----5-5-4-4--|


  E E Q  E E Q    E E Q  E E E E   E E E E E E E E   E E E E E E E E
|---------------|----------------|-----------------|------------------|
|---------------|----------------|-----------------|------------------|
|-4-4-----------|----------------|-4-4-4-4---------|-2-2-2-2---0-2-3--|
|--------0-0----|-2-2----5-5-4-4-|---------0-0-0-0-|---------2--------|


  E E Q  E E E E   E H..         E E Q  E E Q    E E Q  E E E E
|----------------|-------------|---------------|-----------------|
|----------------|-------------|---------------|-----------------|
|-4-4------------|-------------|-4-4-----------|-----------------|
|--------0-0-0-2-|-4-----------|--------0-0----|-2-2----5-5-4-4--|


  E E Q  E E Q    E E Q  E E E E   E E E E E E E E   E E E E E E E E
|---------------|----------------|-----------------|------------------|
|---------------|----------------|-----------------|------------------|
|-4-4-----------|----------------|-4-4-4-4---------|-2-2-2-2---0-2-3--|
|--------0-0----|-2-2----5-5-4-4-|---------0-0-0-0-|---------2--------|


  E E Q  E E E E   E E E E E E E E   E E E E E E E E
|----------------|-----------------|-----------------||
|----------------|-----------------|-----------------||
|-4-4------------|-----------------|-----------------||
|--------0-0-0-2-|-4-4-4-4-4-4-4-4-|-4-4-4-4-4-4-4-4-||


 Chorus
  E E E E E E E E   E E E E E E E E   E E E E E E E E   E E E E E E E E
|-----------------|-----------------|-----------------|------------------|
|-----------------|-----------------|-----------------|------------------|
|-4-4-4-4---------|---------2-2-2-2-|-4-4-4-4---------|-------0-2-2-2-2--|
|---------5-5-5-5-|-0-0-0-0---------|---------5-5-5-5-|-0-2-4------------|


  E E E E E E E E   E E E E E E E E   E E E E E E E E   E E E E E E E E
|-----------------|-----------------|-----------------|------------------|
|-----------------|-----------------|-----------------|------------------|
|-4-4-4-4---------|-----------------|-4-4-4-4---------|------------------|
|---------5-5-5-5-|-0-0-0-0-2-2-2-2-|---------5-5-5-5-|-0-0-0-0-2-2-2-2--|


  E E E E E E E E   E E E E E E E E   E E Q  E E Q
|-----------------|-----------------|---------------|
|-----------------|-----------------|---------------|
|-----------------|-----------------|-4-4-----------|
|-4-4-4-4-4-4-4-4-|-4-4-4-4-4-4-4-4-|--------0-0----|


  E E Q  E E E E   E E Q  E E E E   E H..
|----------------|----------------|----------||
|----------------|----------------|----------||
|----------------|-4-4------------|----------||
|-2-2----5-5-4-4-|--------0-0-0-2-|-4--------||


 2nd Verse
  E E Q  E E Q    E E Q  E E E E   E E Q  E E Q    E E Q  E E E E
|---------------|----------------|---------------|-----------------|
|---------------|----------------|---------------|-----------------|
|-4-4-----------|----------------|-4-4-----------|-----------------|
|--------0-0----|-2-2----5-5-4-4-|--------0-0----|-2-2----5-5-4-4--|


  E E E E E E E E   E E E E E E E E   E E E E E E E E   E E E E E E E E
|-----------------|-----------------|-----------------|------------------||
|-----------------|-----------------|-----------------|------------------||
|-4-4-4-4---------|-2-2-2-2---0-2-3-|-----------------|------------------||
|---------0-0-0-0-|---------2-------|-4-4-4-4-4-4-4-4-|-4-4-4-4-4-4-4-4--||


 Chorus
  E E E E E E E E   E E E E E E E E   E E E E E E E E   E E E E E E E E
|-----------------|-----------------|-----------------|------------------|
|-----------------|-----------------|-----------------|------------------|
|-4-4-4-4---------|---------2-2-2-2-|-4-4-4-4---------|-------0-2-2-2-2--|
|---------5-5-5-5-|-0-0-0-0---------|---------5-5-5-5-|-0-2-4------------|


  E E E E E E E E   E E E E E E E E   E E E E E E E E
|-----------------|-----------------|-----------------|
|-----------------|-----------------|-----------------|
|-4-4-4-4---------|-----------------|-4-4-4-4---------|
|---------5-5-5-5-|-0-0-0-0-2-2-2-2-|---------5-5-5-5-|


  E E E E E E E E   E E E E E E E E   E E E E E E E E
|-----------------|-----------------|-----------------||
|-----------------|-----------------|-----------------||
|-----------------|-----------------|-----------------||
|-0-0-0-0-2-2-2-2-|-4-4-4-4-4-4-4-4-|-4-4-4-4-4-4-4-4-||


 Bridge
  E E E E E E E E   E E E E E E E E   E E E E E E E E   E E E E E E E E
|-----------------|-----------------|-----------------|------------------|
|-----------------|-----------------|-----------------|------------------|
|-2-2-2-2-2-2-2-2-|-2-2-2-2-2-2-2-2-|-----------------|------------------|
|-----------------|-----------------|-2-2-2-2-2-2-2-2-|-2-2-2-2-2-2-2-2--|


  W          W          Q.   Q.   Q    Q.   Q.   Q
|----------|----------|--------------|---------------||
|----------|----------|--------------|---------------||
|-0--------|----------|--------------|---------------||
|----------|-0--------|-4----4----4--|-4----4----4---||


 Guitar Solo
  E E E E E E E E   E E E E E E E E   E E E E E E E E   E E E E E E E E
|-----------------|-----------------|-----------------|------------------|
|-----------------|-----------------|-----------------|------------------|
|-4-4-4-4---------|---------2-2-2-2-|-4-4-4-4---------|-------0-2-2-2-2--|
|---------5-5-5-5-|-0-0-0-0---------|---------5-5-5-5-|-0-2-4------------|


  E E E E E E E E   E E E E E E E E   E E E E E E E E
|-----------------|-----------------|-----------------|
|-----------------|-----------------|-----------------|
|-4-4-4-4---------|-----------------|-4-4-4-4---------|
|---------5-5-5-5-|-0-0-0-0-2-2-2-2-|---------5-5-5-5-|


  E E E E E E E E   E E E E E E E E   E E E E E E E E
|-----------------|-----------------|-----------------||
|-----------------|-----------------|-----------------||
|-----------------|-----------------|-----------------||
|-0-0-0-0-2-2-2-2-|-4-4-4-4-4-4-4-4-|-4-4-4-4-4-4-4-4-||


 Chorus
  E E E E E E E E   E E E E E E E E   E E E E E E E E   E E E E E E E E
|-----------------|-----------------|-----------------|------------------|
|-----------------|-----------------|-----------------|------------------|
|-4-4-4-4---------|---------2-2-2-2-|-4-4-4-4---------|-------0-2-2-2-2--|
|---------5-5-5-5-|-0-0-0-0---------|---------5-5-5-5-|-0-2-4------------|


  E E E E E E E E   E E E E E E E E   E E E E E E E E   E E E E E E E E
|-----------------|-----------------|-----------------|------------------||
|-----------------|-----------------|-----------------|------------------||
|-4-4-4-4---------|-----------------|-4-4-4-4---------|------------------||
|---------5-5-5-5-|-0-0-0-0-2-2-2-2-|---------5-5-5-5-|-0-0-0-0-2-2-2-2--||


 Outro
  E E E E E E E E   E E E E E E E E   E E E E E E E E   E E E E E E E E
|-----------------|-----------------|-----------------|------------------|
|-----------------|-----------------|-----------------|------------------|
|-4-4-4-4---------|---------2-2-2-2-|-4-4-4-4---------|-------0-2-2-2-2--|
|---------5-5-5-5-|-0-0-0-0---------|---------5-5-5-5-|-0-2-4------------|


  E E E E E E E E   E E E E E E E E   E E E E E E E E   E E E E E E E E
|-----------------|-----------------|-----------------|------------------|
|-----------------|-----------------|-----------------|------------------|
|-4-4-4-4---------|-----------------|-4-4-4-4---------|------------------|
|---------5-5-5-5-|-0-0-0-0-2-2-2-2-|---------5-5-5-5-|-0-0-0-0-2-2-2-2--|


  E E E E E E E E   E E E E E E E E   E E E E E E E E
|-----------------|-----------------|-----------------|
|-----------------|-----------------|-----------------|
|-----------------|-----------------|-----------------|
|-4-4-4-4-4-4-4-4-|-4-4-4-4-4-4-4-4-|-4-4-4-4-4-4-4-4-|


  H.=H            Q=Q=130
  E E E E E E E E   W          +H     H
|-----------------|----------|--------------*|
|-----------------|----------|--------------*|
|-----------------|-4--------|-(4)----4\----*|
|-4-4-4-4-4-4-4-4-|----------|--------------*|



Duration Legend
---------------
W - whole; H - half; Q - quarter; E - 8th; S - 16th; T - 32nd; X - 64th; a - acciaccatura
+ - note tied to previous; . - note dotted; .. - note double dotted
Uncapitalized letters represent notes that are staccato (1/2 duration)
Irregular groupings are notated above the duration line
Duration letters will always appear directly above the note/fret number it represents the
duration for.  Duration letters with no fret number below them represent rests.  Multi-
bar rests are notated in the form Wxn, where n is the number of bars to rest for.  Low
melody durations appear below the staff

Tablature Legend
----------------
 h   - hammer-on
 p   - pull-off
 b   - bend
 pb  - pre-bend
 r   - bend release (if no number after the r, then release immediately)
 /\  - slide into or out of (from/to "nowhere")
 s   - legato slide
 S   - shift slide
 - natural harmonic
[n]  - artificial harmonic
n(n) - tapped harmonic
 ~   - vibrato
 tr  - trill
 T   - tap
 TP  - trem. picking
 PM  - palm muting
\n/  - tremolo bar dip; n = amount to dip
 \n  - tremolo bar down
 n/  - tremolo bar up
/n\  - tremolo bar inverted dip
 =   - hold bend; also acts as connecting device for hammers/pulls
 <> - volume swell (louder/softer)
 x   - on rhythm slash represents muted slash
 o   - on rhythm slash represents single note slash

Misc Legend
-----------
 |  - bar
||  - double bar
||o - repeat start
o|| - repeat end
*|  - double bar (ending)
 :  - bar (freetime)
 $  - Segno
 &  - Coda
Tempo markers -  = BPM(8/16=s8/s16), where s8 = swing 8ths, s16 = swing 16ths

Suggest correction
What's this?
You can suggest a correction to this tab. Community and Mods will review your correction and vote to approve or reject it.
comments
print report bad tab
1 comment total.
-1 reply
101musicmen 10 wrote on August 31 2014, 09:28 pm

the song the way you wrote it out should be in F standard not E standard, everything is a half step low.

guest
You may want to rate the tab now too:
select rating
Please do not post tabs as comments. Select "correction" instead!