Oops, an error
Loading. Please wait.

21St Century Digital Boy Tab

version 2
version 2

Whole song

Interactive

8,042 views 15 this week
2 commentsread comments
1 2 3 4 5
accurate
x 6
add to favorites
launch autoscroll
font size
0
reset
how to read this tab
guitar tuner
Autoscroll
slow
fast
+/-
esc
set tempo
stop
Help us to improve Ultimate-Guitar.com Take our survey!
×
Author
Difficulty
Tuning
novice
D# G# C# F# A# D#
Intro
e|------------------------------------------------------------------------|
B|------------------------------------------------------------------------|
G|-7-7-7-7-7-7-7-7-7-7-7-7-7----------------------------------------------|
D|-7-7-7-7-7-7-7-7-7-7-7-7-7----------------------------------------------|
A|-5-5-5-5-5-5-5-5-5-5-5-5-5----------------------------------------------|
E|------------------------------------------------------------------------|
palm mute about half and other half open

Verse A
e|--------------------------------------------------------------------------|
B|--------------------------------------------------------------------------|
G|-7-7----------------------------------------------------------------------| 2x
D|-7-7--3-3--5-5--8-8--7-7--------------------------------------------------|
A|-5-5--3-3--5-5--8-8--7-7--------------------------------------------------|
E|------1-1--3-3--6-6--5-5--------------------------------------------------|

Verse B
e|------------------------------------------------------------------------|
B|------------------------------------------------------------------------|
G|------------------------------------------------------------------------|
D|-7-7-7-7-----------5-5-5-5-----------7-7-7-7---------5--7---------------|
A|-5-5-5-5--3-3-3-3--3-3-3-3--5-5-5-5--5-5-5-5--3-3-3--5--7---------------|
E|----------1-1-1-1-----------3-3-3-3-----------1-1-1--3--5---------------|
Verse A
e|--------------------------------------------------------------------------|
B|--------------------------------------------------------------------------|
G|-7-7----------------------------------------------------------------------| 2x
D|-7-7--3-3--5-5--8-8--7-7--------------------------------------------------|
A|-5-5--3-3--5-5--8-8--7-7--------------------------------------------------|
E|------1-1--3-3--6-6--5-5--------------------------------------------------|

Verse B
e|---------------------------------------------------------------------|
B|---------------------------------------------------------------------|
G|-7-7-7-7-----------5-5-5-5-----------7-7-7-7-------------------------|
D|-7-7-7-7--3-3-3-3--5-5-5-5--5-5-5-5--7-7-7-7--3-3-3--5--7-7-7-7-7-7-7|
A|-5-5-5-5--3-3-3-3--3-3-3-3--5-5-5-5--5-5-5-5--3-3-3--5--7-7-7-7-7-7-7|
E|----------1-1-1-1-----------3-3-3-3-----------1-1-1--3--5-5-5-5-5-5-5|
(Palm mute)

Chorus
e|--------------------------------------------------------------------------|
B|--------------------------------------------------------------------------|
G|-7-7-7-7--3-3-3-3---------------------------------------------------------| 2x
D|-7-7-7-7--3-3-3-3--3-3-3-3--5-5-5-5---------------------------------------|
A|-5-5-5-5--1-1-1-1--3-3-3-3--5-5-5-5---------------------------------------|
E|-------------------1-1-1-1--3-3-3-3---------------------------------------|

e|--------------------------------------------------------------------------|
B|--------------------------------------------------------------------------|
G|-7-7-7-7--3-3-3-3---------------------------------------------------------| 2x
D|-7-7-7-7--3-3-3-3--3-3-3-3--5-5-5-5--(7-7-7-7-7-7-7-7-7-7-7)--------------|
A|-5-5-5-5--1-1-1-1--3-3-3-3--5-5-5-5--(7-7-7-7-7-7-7-7-7-7-7)--------------|
E|-------------------1-1-1-1--3-3-3-3--(5-5-5-5-5-5-5-5-5-5-5)--------------|

Short Pre Verse
e|------------------------------------------------------------------------|
B|------------------------------------------------------------------------|
G|-7-7--------------------------------------------------------------------|
D|-7-7--3-3--5-5--8-8--7-7--7-7--3-3-3--5--7------------------------------|
A|-5-5--3-3--5-5--8-8--7-7--7-7--3-3-3--5--7------------------------------|
E|------1-1--3-3--6-6--5-5--5-5--1-1-1--3--5------------------------------|

Verse A
e|--------------------------------------------------------------------------|
B|--------------------------------------------------------------------------|
G|-7-7----------------------------------------------------------------------| 2x
D|-7-7--3-3--5-5--8-8--7-7--------------------------------------------------|
A|-5-5--3-3--5-5--8-8--7-7--------------------------------------------------|
E|------1-1--3-3--6-6--5-5--------------------------------------------------|

Verse B
e|------------------------------------------------------------------------|
B|------------------------------------------------------------------------|
G|-7-7-7-7-----------5-5-5-5----------------------------------------------|
D|-7-7-7-7--3-3-3-3--5-5-5-5--5-5-5-5--7-7-7-7--3-3-3--5--7-7-7-7-7-7-7-7-|
A|-5-5-5-5--3-3-3-3--3-3-3-3--5-5-5-5--7-7-7-7--3-3-3--5--7-7-7-7-7-7-7-7-|
E|----------1-1-1-1-----------3-3-3-3--5-5-5-5--1-1-1--3--5-5-5-5-5-5-5-5-|

Chorus
e|--------------------------------------------------------------------------|
B|--------------------------------------------------------------------------|
G|--------------------------------------------------------------------------| 2x
D|-7-7-7-7--3-3-3-3--3-3-3-3--5-5-5-5---------------------------------------|
A|-7-7-7-7--3-3-3-3--3-3-3-3--5-5-5-5---------------------------------------|
E|-5-5-5-5--1-1-1-1--1-1-1-1--3-3-3-3---------------------------------------|

e|--------------------------------------------------------------------------|
B|--------------------------------------------------------------------------|
G|--------------------------------------------------------------------------| 2x
D|-7-7-7-7--3-3-3-3--3-3-3-3--5-5-5-5--(7-7-7-7-7-7-7-7-7)------------------|
A|-7-7-7-7--3-3-3-3--3-3-3-3--5-5-5-5--(7-7-7-7-7-7-7-7-7)------------------|
E|-5-5-5-5--1-1-1-1--1-1-1-1--3-3-3-3--(5-5-5-5-5-5-5-5-5)------------------|
(last one)

Bridge
e|------------------------------------------------------------------------|
B|------------------------------------------------------------------------|
G|-5----------------3-----------------------------------------------------|
D|-5-(16x)-5--------3-(8x)-3-------7--------------------------------------|
A|-3-------5-(16x)--1------3-(8x)--7-(16x)--------------------------------|
E|---------3---------------1-------5--------------------------------------|

Solo
--9^--9^--------------------------------------14^---14^--14^---14/12----12-|
-12^-12^--------12^--12^--------------14--12-------------------------14----|
---------9-11---11^--11^--9----9^--13--------------------------------------|
--------------9^------------11---------------------------------------------|
---------------------------------------------------------------------------|
---------------------------------------------------------------------------|

------------------------------9-------------------|
12^--(12)---------------------9--12/9------9------|
11^--(11)--9----9----------11^--------11^--9-12/9-|
-------------11---11/9-11^------------------------|
--------------------------------------------------|
--------------------------------------------------|

--------9-----------------------------------------|
-----9----12/9------------------------------------|
-11^----------------------------------------------|
----------------11--9-----------------------------|
-----------------------11--9----9-9-9-9^^---------|
-------------------------------------------12-9---|
Suggest correction
comments
print report bad tab
2 comments total.
0 reply
flox98 10 wrote on March 8 2013, 12:59 pm

Sounds Good! I play it like that.

0 reply
bulletv1 10 wrote on December 13 2015, 12:22 pm

Tuning is wrong. It's in standard, other than that it's a good tab.

guest
You may want to rate the tab now too:
select rating
Wanna post a correction for this tab? Suggest correction