Oops, an error
Loading. Please wait.

21St Century Digital Boy Tab

version 3
version 3

Whole song

Interactive

24,896 views 81 this week
1 commentread comment
1 2 3 4 5
x 7
add to favorites
launch autoscroll
font size
0
reset
how to read this tab
guitar tuner
Autoscroll
slow
fast
+/-
esc
set tempo
stop
Help us to improve Ultimate-Guitar.com Take our survey!
×
------------------------------------------------------------------------------- 
                21ST CENTURY DIGITAL BOY - Bad Religion 
------------------------------------------------------------------------------- 

By: Joe Russo 

[Intro]
e|-------------------------------------------------------------------------| 
B|-------------------------------------------------------------------------| 
G|-------------------------------------------------------------------------| 
D|-7-7-7-7-7-7-7-7-7-7-7-7-7-----------------------------------------------| 
A|-5-5-5-5-5-5-5-5-5-5-5-5-5-----------------------------------------------| 
E|-------------------------------------------------------------------------| 
palm mute about half and other half open 

[Verse A]
e|-------------------------------------------------------------------------| 
B|-------------------------------------------------------------------------| 
G|-------------------------------------------------------------------------| 2x 
D|-7-7---------------------------------------------------------------------| 
A|-5-5--3-3--5-5--8-8--7-7-------------------------------------------------| 
E|------1-1--3-3--6-6--5-5-------------------------------------------------| 

[Verse B]
e|-------------------------------------------------------------------------| 
B|-------------------------------------------------------------------------| 
G|-------------------------------------------------------------------------| 1x 
D|-7-7-7-7-----------5-5-5-5-----------7-7-7-7-----------------------------| 
A|-5-5-5-5--3-3-3-3--3-3-3-3--5-5-5-5--5-5-5-5--3-3-3--5--7----------------| 
E|----------1-1-1-1-----------3-3-3-3-----------1-1-1--3--5----------------| 

[Verse A]
e|-------------------------------------------------------------------------| 
B|-------------------------------------------------------------------------| 
G|-------------------------------------------------------------------------| 2x 
D|-7-7---------------------------------------------------------------------| 
A|-5-5--3-3--5-5--8-8--7-7-------------------------------------------------| 
E|------1-1--3-3--6-6--5-5-------------------------------------------------| 

[Verse B]
e|-------------------------------------------------------------------------| 
B|-------------------------------------------------------------------------| 
G|-------------------------------------------------------------------------| 1x 
D|-7-7-7-7-----------5-5-5-5-----------7-7-7-7-----------------------------| 
A|-5-5-5-5--3-3-3-3--3-3-3-3--5-5-5-5--5-5-5-5--3-3-3--5--7-7-7-7-7-7-7----| 
E|----------1-1-1-1-----------3-3-3-3-----------1-1-1--3--5-5-5-5-5-5-5----| 
(Palm mute) 

[Chorus]
e|-------------------------------------------------------------------------| 
B|-------------------------------------------------------------------------| 
G|-------------------------------------------------------------------------| 2x 
D|-7-7-7-7--3-3-3-3-----------5-5-5-5--------------------------------------| 
A|-5-5-5-5--1-1-1-1--3-3-3-3--3-3-3-3--------------------------------------| 
E|-------------------1-1-1-1-----------------------------------------------| 

e|-------------------------------------------------------------------------| 
B|-------------------------------------------------------------------------| 
G|-------------------------------------------------------------------------| 2x 
D|-7-7-7-7--3-3-3-3--------------------------------------------------------| 
A|-5-5-5-5--1-1-1-1--3-3-3-3--5-5-5-5--(7-7-7-7-7-7-7-7-7-7-7)-------------| 
E|-------------------1-1-1-1--3-3-3-3--(5-5-5-5-5-5-5-5-5-5-5)-------------| 
(palm mute on last one) 

[Short Pre-Verse] 
e|-------------------------------------------------------------------------| 
B|-------------------------------------------------------------------------| 
G|-------------------------------------------------------------------------| 1x 
D|-7-7----------------------7-7--------------------------------------------| 
A|-5-5--3-3--5-5--8-8--7-7--5-5--3-3-3--5--7-------------------------------| 
E|------1-1--3-3--6-6--5-5-------1-1-1--3--5-------------------------------| 

[Verse A]
e|-------------------------------------------------------------------------| 
B|-------------------------------------------------------------------------| 
G|-------------------------------------------------------------------------| 2x 
D|-7-7---------------------------------------------------------------------| 
A|-5-5--3-3--5-5--8-8--7-7-------------------------------------------------| 
E|------1-1--3-3--6-6--5-5-------------------------------------------------| 

[Verse B]
e|-------------------------------------------------------------------------| 
B|-------------------------------------------------------------------------| 
G|-------------------------------------------------------------------------| 1x 
D|-7-7-7-7-----------5-5-5-5-----------7-7-7-7-----------------------------| 
A|-5-5-5-5--3-3-3-3--3-3-3-3--5-5-5-5--5-5-5-5--3-3-3--5--7-7-7-7-7-7-7-7--| 
E|----------1-1-1-1-----------3-3-3-3-----------1-1-1--3--5-5-5-5-5-5-5-5--| 
 (palm mute) 
[Chorus]
e|-------------------------------------------------------------------------| 
B|-------------------------------------------------------------------------| 
G|-------------------------------------------------------------------------| 2x 
D|-7-7-7-7--3-3-3-3-----------5-5-5-5--------------------------------------| 
A|-5-5-5-5--1-1-1-1--3-3-3-3--3-3-3-3--------------------------------------| 
E|-------------------1-1-1-1-----------------------------------------------| 

e|-------------------------------------------------------------------------| 
B|-------------------------------------------------------------------------| 
G|-------------------------------------------------------------------------| 2x 
D|-7-7-7-7--3-3-3-3--------------------------------------------------------| 
A|-5-5-5-5--1-1-1-1--3-3-3-3--5-5-5-5--(7-7-7-7-7-7-7-7-7)-----------------| 
E|-------------------1-1-1-1--3-3-3-3--(5-5-5-5-5-5-5-5-5)-----------------| 
(last one) 

[Bridge]
e|-------------------------------------------------------------------------| 
B|-------------------------------------------------------------------------| 
G|-------------------------------------------------------------------------| 
D|-5-(16x)----------3-(8x)-------------------------------------------------| 
A|-3-------5-(16x)--1------3-(8x)--7-(16x)---------------------------------| 
E|---------3---------------1-------5---------------------------------------| 

After this is the solo but i dont know it. While the solo plays just play 
the total chorus about 4 times through. This is pretty good so have fun with 
it.
Suggest correction
comments
print report bad tab
1 comment total.
0 reply
Pasko 112 Apr 08, 2006 09:04 AM

half tunning, and that perfect... really good job

guest
You may want to rate the tab now too:
select rating
Wanna post a correction for this tab? Suggest correction