Oops, an error
Loading. Please wait.

A Streetkid Named Desire Tab

version 2
version 2

Whole song

Interactive

658 views 1 this week
no commentswrite comment
1 2 3 4 5
3 more votes to show rating
add to favorites
launch autoscroll
font size
0
reset
how to read this tab
guitar tuner
Autoscroll
slow
fast
+/-
esc
set tempo
stop
Help us to improve Ultimate-Guitar.com Take our survey!
×
Intro

e||----------------------------------||
B||----------------------------------||
G||----------5-5-5-5---------3-3-3-3-||
D||--3-3-3-3-5-5-5-5-5-5-5-5-3-3-3-3-||
A||--3-3-3-3-3-3-3-3-5-5-5-5-1-1-1-1-||
E||--1-1-1-1---------3-3-3-3---------||

Solo

e||------------------0-0-1-0-1-----0-----3-3-5-6-||
B||------------1-3-3-----------1-----1---3-3-5-6-||
G||--------0-2-------------------2-----0---------||
D||--3-3-3---------------------------------------||
A||----------------------------------------------||
E||----------------------------------------------||

e||-------------------------------------------------------------||
B||-----------13----13-------10-10-11-10-13-10-10-10-10---------||
G||--10-10-10----10----12-12----------------10-10-10-10-7-7-7-7-||
D||--10-10-10-------------------------------------------8-8-8-8-||
A||-------------------------------------------------------------||
E||-------------------------------------------------------------||


Verse

e||----------------------------------------------||
B||----------------------------------------------||
G||--5-5---------5-5---------5-5-----------5---5-||
D||--5-5-3-3-3-3-5-5-3-3-3-3-5-5-5-5-5-5-3-5-3-5-||
A||--3-3-3-3-3-3-3-3-3-3-3-3-3-3-5-5-5-5-3-3-3-3-||
E||------1-1-1-1-----1-1-1-1-----3-3-3-3-1---1---||

e||-----------------------------------------------------------||
B||-----------------------------------------------------------||
G||--5-5-5-5-4-4-4-4-2-2-2-2----------------------------------||
D||--5-5-5-5-5-5-5-5-2-2-2-2-5-5-5-5-3-3-3-3-3-3-5-5-5-5-5-5--||
A||--3-3-3-3-2-2-2-2-0-0-0-0-5-5-5-5-3-3-3-3-3-3-5-5-5-5-5-5--||
E||--------------------------3-3-3-3-1-1-1-1-1-1-3-3-3-3-3-3--||


Bridge

e||----------------------------------||
B||----------------------------------||
G||--5-5-5-5-------------------------||
D||--5-5-5-5-3-3-3-3-5-5-5-5-5-5-5-5-||
A||--3-3-3-3-3-3-3-3-5-5-5-5-5-5-5-5-||
E||----------1-1-1-1-3-3-3-3-3-3-3-3-||

e||--0---------3-||
B||--1---------3-||
G||--2---------0-||
D||--2---------0-||
A||--0---------2-||
E||------------3-||


Chorus

e||----------------------------------|-----------------||
B||----------------------------------|-----------------||
G||--5-5-5-5---------3-3-3-3---------|-5-5-----3-3-5-5-||
D||--5-5-5-5-3-3-3-3-3-3-3-3-3-3-3-3-|-5-5-3-3-3-3-5-5-||
A||--3-3-3-3-3-3-3-3-1-1-1-1-3-3-3-3-|-3-3-3-3-1-1-3-3-||
E||----------1-1-1-1---------1-1-1-1-|-----1-1---------||

Solo

e||--------------3-3-5-5-6-5---------------||
B||--6-----5-----------------6-6-6-5-5-6-5-||
G||----5-5---5-5-------------5-5-5-5-5-5-5-||
D||----------------------------------------||
A||----------------------------------------||
E||----------------------------------------||


Interlude

e||--0-------------3-||
B||--3-------------3-||
G||--2-------------0-||
D||--0-------------0-||
A||----------------2-||
E||----------------3-||

e||--------|--3-----||
B||--0-----|----5---||
G||----5---|------4-||
D||------5-|--------||
A||--------|--------||
E||--------|--------||


Solo

e||--------------------------------------------------||
B||--13----13----12----12----13----13----12----13----||
G||-----12----12----12----12----12----12----12----12-||
D||--------------------------------------------------||
A||--------------------------------------------------||
E||--------------------------------------------------||

e||--------------------------------------------||
B||--------------------------------------------||
G||--17/16-16/14-14/12-12/14-14/12-12/14-12-12-||
D||--x--x--x--x--x--x--x--x--x--x--x--x--x--x--||
A||--15/14-14/12-12/10-10/12-12/10-10/12-10-10-||
E||--------------------------------------------||

e||--------------------------------------------------||
B||----------------------1-1-1-1-0-0-0-0-1-1-0-0-3-5-||
G||--------------0-2-2-0-0-0-0-0-0-0-0-0-0-0-0-0-----||
D||--------0-2-2-------------------------------------||
A||--3-3-3-------------------------------------------||
E||--------------------------------------------------||

Suggest correction
Give kudos to tab author, rate the tab!
1 2 3 4 5
comments
print report bad tab
guest
You may want to rate the tab now too:
select rating
Wanna post a correction for this tab? Suggest correction