Oops, an error
Loading. Please wait.

American Jesus Tab

version 4
version 4
11,902 views 1 this week
no commentswrite comment
1 2 3 4 5
1 last vote to show rating
add to favorites
launch autoscroll
font size
0
reset
how to read this tab
guitar tuner
Autoscroll
slow
fast
+/-
esc
set tempo
stop
Help us to improve Ultimate-Guitar.com Take our survey!
×
Author
Artist: Bad Religion
Song: American Jesus
Album: Recipite For Hate
Note: Listen to the song for the time.

Intro Part 1                    Intro Part 2

  |-----------4x-------------|
e|----------------------------|---------------------------------------------|
B|----------------------------|---------------------------------------------|
G|----------------------------|---------------------------------------------|
D|----------------0-----------|---------------0--------------------------2--|
A|--0--0-2-3--2-3---3-2-3-2-0-|--0--0-2-3—2-3---3-2-3-2-0---0--0-2-3--2-3---|
E|----------------------------|---------------------------------------------|


Verso 1
 
  |------------------------------3x---------------------------|
e|-------------------------------------------------------------|
B|-------------------------------------------------------------|
G|-------------------------------------------------------------|
D|-7-7-7-7-7-10-10-10-10-10-10-3-3-3-3-3-3-3-3-5-5-5-5-5-5-5-5-|
A|-7-7-7-7-7-10-10-10-10-10-10-3-3-3-3-3-3-3-3-3-3-3-3-3-3-3-3-|
E|-5-5-5-5-5--8--8--8--8--8--8-1-1-1-1-1-1-1-1-3-3-3-3-3-3-3-3-|

Verso 2
e|-------------------------------------------------------------|
B|-------------------------------------------------------------|
G|-------------------------------------------------------------|
D|-7-7-7-7-7-10-10-10-10-10-10-3-3-3-3-3-3-9-9-9-9-9-9-9-9-9-9-|
A|-7-7-7-7-7-10-10-10-10-10-10-3-3-3-3-3-3-9-9-9-9-9-9-9-9-9-9-|
E|-5-5-5-5-5--8--8--8--8--8--8-1-1-1-1-1-1-7-7-7-7-7-7-7-7-7-7-|


Coro

  |--------2x--------|
e|-------------------|------------------------------------------------------|
B|-------------------|------------------------------------------------------|
G|-------------------|-----------7-7-10-10----------------------------------|
D|-7-7-10-10-3-3-5-5-|-7-7-10-10-7-7-10-10--7-7-7-7-5-5-5-5-3-3-3-3-3-3-3-3-|
A|-7-7-10-10-3-3-5-5-|-7-7-10-10-5-5--8--8--7-7-7-7-5-5-5-5-3-3-3-3-3-3-3-3-|
E|-5-5--8--8-1-1-3-3-|-5-5--8--8------------5-5-5-5-3-3-3-3-1-1-1-1-1-1-1-1-|



Song Orden:
Intro Part 1
Intro Part 2
Verso 1
Verso 2
Coro
Intro Part 1
Verso 1
Verso 2
Coro
Verso 1 (P.M.)
Verso 1 (only one time)
Verso 2
Coro x2
Intro Part 1 x2

Un saludo para todos la generacion 2001-2004 del CBTis 246 de Zapopan Jalisco, en especial para Angelica.
Suggest correction
Give kudos to tab author, rate the tab!
1 2 3 4 5
comments
print report bad tab
guest
You may want to rate the tab now too:
select rating
Wanna post a correction for this tab? Suggest correction