Oops, an error
Loading. Please wait.

Atomic Garden Tab

version 1
version 1

Whole song

Interactive

3,313 views 3 this week
no commentswrite comment
1 2 3 4 5
x 3
add to favorites
launch autoscroll
font size
0
reset
how to read this tab
guitar tuner
Autoscroll
slow
fast
+/-
esc
set tempo
stop
Help us to improve Ultimate-Guitar.com Take our survey!
×
Author
Difficulty
novice
Tabbed by:
Email:

Tuning:
intro
e|---------------------------------------------------------------------------|
B|---------------------------------------------------------------------------|
G|---------------------------------------------------------------------------|
D|--7-------5----------------------------------------7-----------------------|
A|--7--x3---5--x3-------repeat that 3 times--end on--7-----------------------|
E|--5-------3----------------------------------------5-----------------------|

verse
e|--------------------------------------------------------------------------|
B|--------------------------------------------------------------------------|
G|-------------------------------------------------------------------9------|
D|--7------5----------------------------3-------5------7------5------9--x8--|
A|--7-x3---5-x3--repeat 3 times then----3--x3---5--x3--7--x3--5--x3--7------|
E|--5------3----------------------------1-------3------5------3-------------|

e|--------------------------------------------------------------------------|
B|--------------------------------------------------------------------------|
G|--------------------------------------------------------------------------|
D|--5-----------------------------------------------------------------------|
A|--5--x1-------------------------------------------------------------------|
E|--3-----------------------------------------------------------------------|
chorus
e|--------------------------------------------------------------------------|
B|--------------------------------------------------------------------------|
G|--------------------------------------------------------------------------|
D|--------------------7---5---3---5----7------5-------7------3--------------|
A|let ring each time--7---5---3---5----7--x3--5--x3---7--x3--3--x3----------|
E|--------------------5---3---1---3----5------3-------5------1--------------|
bridge
e|-------------------------------------------17-x9--17-15-12---17-x3--------|
B|--------------------------------------------------------------------------|
G|--------------------------------------------------------------------------|
D|-5-----3------------------------------------------------------------------|
A|-5-x3--3--x3----repeat 8 times----then------------------------------------|
E|-3-----1------------------------------------------------------------------|

need a little help on end solo cant quite get so its not in there


| /  slide up
| \  slide down
| h  hammer-on
| p  pull-off
| ~  vibrato
| +  harmonic
| x  Mute note
Suggest correction
Give kudos to tab author, rate the tab!
1 2 3 4 5
comments
print report bad tab
guest
You may want to rate the tab now too:
select rating
Wanna post a correction for this tab? Suggest correction