Oops, an error
Loading. Please wait.

Atomic Garden tab

version 2
version 2

Whole song

Interactive

10 views 1 this week
no commentswrite comment
1 2 3 4 5
3 more votes to show rating
add to favorites
×
Save as Personal and add changes to this tab that will be seen only by you. Learn more ›
×
You can save this tab as Personal to edit and correct it or add notes. All changes will be seen only by you. Learn more »
launch autoscroll
font size
0
reset
how to read this tab
guitar tuner
edit
Autoscroll
slow
fast
+/-
esc
set tempo
stop
Artist: Bad Religion
Song: Atomic Garden
Album: Generator (1992)

Guitar 1 (E A D G B e) - 'Brett Gurewitz - Distortion'
Guitar 2 (E A D G B e) - 'Greg Hetson - Distortion'
Guitar 3 (E A D G B e) - 'Keyboard transcribed for Guitar'


[Intro]
4/4
  Guitar 1 & 2
   (W)                                  (H.)                     Q
e|------------------------------------|------------------------------------|
B|------------------------------------|------------------------------------|
G|------------------------------------|------------------------------------|
D|------------------------------------|------------------------------------|
A|------------------------------------|------------------------------------|
E|------------------------------------|--------------------------12\-------|
 |                                    |                                    |
 |Guitar 3                            |                                    |
 | (W)                                | (W)                                |
e|------------------------------------|------------------------------------|
B|------------------------------------|------------------------------------|
G|------------------------------[Drum Intro]-------------------------------|
D|------------------------------------|------------------------------------|
A|------------------------------------|------------------------------------|
E|------------------------------------|------------------------------------|


    Q   Q   Q   Q        Q   Q   Q   Q        Q   Q   Q   Q        E (Q.) (Q)  Q
e|--------------------|--------------------|--------------------|--------------------|
B|--------------------|--------------------|--------------------|--------------------|
G|--6---6---4---4-----|--6---6---4---4-----|--6---6---4---4-----|--6-----------------|
D|--7---7---5---5-----|--7---7---5---5-----|--7---7---5---5-----|--7-----------------|
A|--7---7---5---5-----|--7---7---5---5-----|--7---7---5---5-----|--7-----------------|
E|--5---5---3---3-----|--5---5---3---3-----|--5---5---3---3-----|--5-----------12\---|
 |                    |                    |                    |                    |
 |  E(E)E E E(E)E E   |  E(E)E E E(E)E E   |  E(E)E E E(E)E E   |  E (Q.) (H)        |
e|--------------------|--------------------|--------------------|--------------------|
B|--------------------|--------------------|--------------------|--------------------|
G|--9---9-8-7---7-8---|--9---9-8-7---7-8---|--9---9-8-7---7-8---|--9-----------------|
D|--------------------|--------------------|--------------------|--------------------|
A|--------------------|--------------------|--------------------|--------------------|
E|--------------------|--------------------|--------------------|--------------------|


[Verse 1]
  Gtr 1 & 2
    Q   Q   Q   Q        Q   Q   Q   Q        Q   Q   Q   Q        Q   Q   Q   Q
e|--0---0-------------|--0---0-------------|--0---0-------------|--------------------|
B|o-x---x-------------|--x---x-------------|--x---x-------------|--------------------|
G|--2---2---4---4-----|--2---2---4---------|--2---2---4---4-----|--2---2---4---4-----|
D|--2---2---5---5-----|--2---2---5---2-----|--2---2---5---5-----|--3---3---5---5-----|
A|o-0---0---5---5-----|--0---0---5---2-----|--0---0---5---5-----|--3---3---5---5-----|
E|----------3---3-----|----------3---0-----|----------3---3-----|--1---1---3---3-----|

                       2/4          4/4
    Q   Q   Q   Q        Q   Q        Q   Q   E E Q        Q   Q   E E Q        E (Q.) (Q)  Q     (x2) 
e|--0---0-------------|------------|------0---0-0-0-----|--0---0---0-0-0-----|--------------------|
B|--x---x-------------|------------|------0---0-0-0-----|--0---0---0-0-0-----|-------------------o|
G|--2---2---4---4-----|--5---5-----|--2---2---2-2-2-----|--2---2---2-2-2-----|--4-----------------|
D|--2---2---5---5-----|--5---5-----|--3---3---3-3-3-----|--3---3---3-3-3-----|--5-----------------|
A|--0---0---5---5-----|--3---3-----|--3---3---3-3-3-----|--3---3---3-3-3-----|--5----------------o|
E|----------3---3-----|------------|--1---1---1-1-1-----|--1---1---1-1-1-----|--3-----------12\---|

  Gtr 1 & 2
    Q   Q   Q   Q        Q   Q   Q   Q
e|--------------------|--------------------|
B|--------------------|--------------------|
G|--6---6---4---4-----|--6---6---4---------|
D|--7---7---5---5-----|--7---7---5---2-----|
A|--7---7---5---5-----|--7---7---5---2-----|
E|--5---5---3---3-----|--5---5---3---0-----|
 |                    |                    |
 |Gtr 3               |                    |
 |  E(E)E E E(E)E E   |  E(E)E E E(E)E(E)  |
e|--------------------|--------------------|
B|--------------------|--------------------|
G|--9---9-8-7---7-8---|--9---9-8-7---------|
D|--------------------|--------------9-----|
A|--------------------|--------------------|
E|--------------------|--------------------|


  Gtr 1 & 2
    Q   Q   Q   Q        Q   Q   Q   Q        Q   Q   Q   Q        Q   Q   Q   Q
e|--0---0-------------|--------------------|--0---0-------------|--------------------|
B|--x---x-------------|--------------------|--x---x-------------|--------------------|
G|--2---2---4---4-----|--2---2---4---4-----|--2---2---4---4-----|--2---2-------------|
D|--2---2---5---5-----|--3---3---5---5-----|--2---2---5---5-----|--3---3---2---2-----|
A|--0---0---5---5-----|--3---3---5---5-----|--0---0---5---5-----|--3---3---2---2-----|
E|----------3---3-----|--1---1---3---3-----|----------3---3-----|--1---1---0---0-----|


    Q   Q   Q   Q        Q   Q   Q   Q        Q   Q   Q   Q        E (Q.) (H) 
e|--0---0-------------|--------------------|--0---0-------------|--------------------|
B|--x---x-------------|--------------------|--x---x-------------|--------------------|
G|--2---2---4---4-----|--2---2---4---4-----|--2---2-------------|--2-----------------|
D|--2---2---5---5-----|--3---3---5---5-----|--2---2---2---2-----|--2-----------------|
A|--0---0---5---5-----|--3---3---5---5-----|--0---0---2---2-----|--0-----------------|
E|----------3---3-----|--1---1---3---3-----|----------0---0-----|--------------------|


[Chorus 1]
  Gtr 1 & 2
    Q   Q.    E Q        Q   Q.    E Q        Q   Q.    E Q        Q   Q.    E Q
e|--0---0-----0-0-----|--------------------|--------------------|--------------------|
B|--0---0-----0-0-----|--------------------|--------------------|--0---0-----0-0-----|
G|--2---2-----2-2-----|--4---4-----4-4-----|--2---2-----2-2-----|--x---x-----x-x-----|
D|--2---2-----2-2-----|--5---5-----5-5-----|--3---3-----3-3-----|--2---2-----2-2-----|
A|--0---0-----0-0-----|--5---5-----5-5-----|--3---3-----3-3-----|--2---2-----2-2-----|
E|--------------------|--3---3-----3-3-----|--1---1-----1-1-----|--0---0-----0-0-----|


    Q   Q   Q   Q        Q   Q   Q   Q        E (Q.) (Q)  Q 
e|--------------------|--------------------|--------------------|
B|--------------------|--------------------|--------------------|
G|--5---5---4---4-----|----------2---2-----|--4-----------------|
D|--5---5---5---5-----|--7---7---3---3-----|--5-----------------|
A|--3---3---5---5-----|--7---7---3---3-----|--5-----------------|
E|----------3---3-----|--5---5---1---1-----|--3-----------12\---|

  Gtr 1 & 2
    Q   Q   Q   Q        Q   Q   Q   Q        Q   Q   Q   Q        Q   Q   Q   Q
e|--------------------|--------------------|--------------------|--------------------|
B|--------------------|--------------------|--------------------|--------------------|
G|--6---6---4---4-----|--6---6---4---4-----|--6---6---4---4-----|--6---6---4---------|
D|--7---7---5---5-----|--7---7---5---5-----|--7---7---5---5-----|--7---7---5---------|
A|--7---7---5---5-----|--7---7---5---5-----|--7---7---5---5-----|--7---7---5---------|
E|--5---5---3---3-----|--5---5---3---3-----|--5---5---3---3-----|--5---5---3---12\---|
 |                    |                    |                    |                    |
 |Gtr 3               |                    |                    |                    |
 |  E(E)E E E(E)E E   |  E(E)E E E(E)E E   |  E(E)E E E(E)E E   |  E(E)E E E(E)E(E)  |
e|--------------------|--------------------|--------------------|--------------------|
B|--------------------|--------------------|--------------------|--------------------|
G|--9---9-8-7---7-8---|--9---9-8-7---7-8---|--9---9-8-7---7-8---|--9---9-8-7---------|
D|--------------------|--------------------|--------------------|--------------9-----|
A|--------------------|--------------------|--------------------|--------------------|
E|--------------------|--------------------|--------------------|--------------------|


[Verse 2]
  Gtr 1 & 2
    Q   Q   Q   Q        Q   Q   Q   Q        Q   Q   Q   Q        Q   Q   Q   Q
e|--0---0-------------|--0---0-------------|--0---0-------------|--------------------|
B|--x---x-------------|--x---x-------------|--x---x-------------|--------------------|
G|--2---2---4---4-----|--2---2---4---------|--2---2---4---4-----|--2---2---4---4-----|
D|--2---2---5---5-----|--2---2---5---2-----|--2---2---5---5-----|--3---3---5---5-----|
A|--0---0---5---5-----|--0---0---5---2-----|--0---0---5---5-----|--3---3---5---5-----|
E|----------3---3-----|----------3---0-----|----------3---3-----|--1---1---3---3-----|

                       2/4          4/4
    Q   Q   Q   Q        Q   Q        Q   Q   E E Q        Q   Q   E E Q        E (Q.) (Q)  Q
e|--0---0-------------|------------|------0---0-0-0-----|--0---0---0-0-0-----|--------------------|
B|--x---x-------------|------------|------0---0-0-0-----|--0---0---0-0-0-----|--------------------|
G|--2---2---4---4-----|--5---5-----|--2---2---2-2-2-----|--2---2---2-2-2-----|--4-----------------|
D|--2---2---5---5-----|--5---5-----|--3---3---3-3-3-----|--3---3---3-3-3-----|--5-----------------|
A|--0---0---5---5-----|--3---3-----|--3---3---3-3-3-----|--3---3---3-3-3-----|--5-----------------|
E|----------3---3-----|------------|--1---1---1-1-1-----|--1---1---1-1-1-----|--3-----------12\---|


    Q   Q   Q   Q        Q   Q   Q   Q        Q   Q   Q   Q        Q   Q   Q   Q
e|--0---0-------------|--------------------|--0---0-------------|--------------------|
B|--x---x-------------|--------------------|--x---x-------------|--------------------|
G|--2---2---4---4-----|--2---2---4---4-----|--2---2---4---4-----|--2---2-------------|
D|--2---2---5---5-----|--3---3---5---5-----|--2---2---5---5-----|--3---3---2---2-----|
A|--0---0---5---5-----|--3---3---5---5-----|--0---0---5---5-----|--3---3---2---2-----|
E|----------3---3-----|--1---1---3---3-----|----------3---3-----|--1---1---0---0-----|


    Q   Q   Q   Q        Q   Q   Q   Q        Q   Q   Q   Q        E (Q.) (H) 
e|--0---0-------------|--------------------|--0---0-------------|--------------------|
B|--x---x-------------|--------------------|--x---x-------------|--------------------|
G|--2---2---4---4-----|--2---2---4---4-----|--2---2-------------|--2-----------------|
D|--2---2---5---5-----|--3---3---5---5-----|--2---2---2---2-----|--2-----------------|
A|--0---0---5---5-----|--3---3---5---5-----|--0---0---2---2-----|--0-----------------|
E|----------3---3-----|--1---1---3---3-----|----------0---0-----|--------------------|


[Chorus 2]
  Gtr 1 & 2
    Q   Q.    E Q        Q   Q.    E Q        Q   Q.    E Q        Q   Q.    E Q
e|--0---0-----0-0-----|--------------------|--------------------|--------------------|
B|--0---0-----0-0-----|--------------------|--------------------|--0---0-----0-0-----|
G|--2---2-----2-2-----|--4---4-----4-4-----|--2---2-----2-2-----|--x---x-----x-x-----|
D|--2---2-----2-2-----|--5---5-----5-5-----|--3---3-----3-3-----|--2---2-----2-2-----|
A|--0---0-----0-0-----|--5---5-----5-5-----|--3---3-----3-3-----|--2---2-----2-2-----|
E|--------------------|--3---3-----3-3-----|--1---1-----1-1-----|--0---0-----0-0-----|


    Q   Q   Q   Q        Q   Q   Q   Q        E (Q.) (H)
e|--------------------|--------------------|--------------------|
B|--------------------|--------------------|--------------------|
G|--5---5---4---4-----|----------2---2-----|--4-----------------|
D|--5---5---5---5-----|--7---7---3---3-----|--5-----------------|
A|--3---3---5---5-----|--7---7---3---3-----|--5-----------------|
E|----------3---3-----|--5---5---1---1-----|--3-----------------|


[Bridge]
  Gtr 1 & 2
    Q   Q   Q   Q        Q   Q   Q   Q        Q   Q   Q   Q        Q   Q   Q   Q     (x2)
e|--------------------|--------------------|--------------------|--------------------|
B|o-------------------|--------------------|--------------------|-------------------o|
G|--4---4---2---2-----|--4---4---2---2-----|--4---4---2---2-----|--4---4---2---2-----|
D|--5---5---3---3-----|--5---5---3---3-----|--5---5---3---3-----|--5---5---3---3-----|
A|o-5---5---3---3-----|--5---5---3---3-----|--5---5---3---3-----|--5---5---3---3----o|
E|--3---3---1---1-----|--3---3---1---1-----|--3---3---1---1-----|--3---3---1---1-----|


[Solo 1]
  Gtr 1
    H        H           H        H           H        H           H        H
e|--17~------17~------|--17~------17~------|--17~------17~------|--17~------17~------|
B|--------------------|--------------------|--------------------|--------------------|
G|--------------------|--------------------|--------------------|--------------------|
D|--------------------|--------------------|--------------------|--------------------|
A|--------------------|--------------------|--------------------|--------------------|
E|--------------------|--------------------|--------------------|--------------------|
 |                    |                    |                    |                    |
 |Gtr 2               |                    |                    |                    |
 |  Q   Q   Q   Q     |  Q   Q   Q   Q     |  Q   Q   Q   Q     |  Q   Q   Q   Q     |
e|--0---0-------------|--0---0-------------|--0---0-------------|--------------------|
B|--x---x-------------|--x---x-------------|--x---x-------------|--------------------|
G|--2---2---4---4-----|--2---2---4---4-----|--2---2---4---4-----|--2---2---4---4-----|
D|--2---2---5---5-----|--2---2---5---5-----|--2---2---5---5-----|--3---3---5---5-----|
A|--0---0---5---5-----|--0---0---5---5-----|--0---0---5---5-----|--3---3---5---5-----|
E|----------3---3-----|----------3---3-----|----------3---3-----|--1---1---3---3-----|


    H        H           H        H           H        H           W
e|--17~------17~------|--17~------17~------|--17~------17~------|--17----------------|
B|--------------------|--------------------|--------------------|--------------------|
G|--------------------|--------------------|--------------------|--------------------|
D|--------------------|--------------------|--------------------|--------------------|
A|--------------------|--------------------|--------------------|--------------------|
E|--------------------|--------------------|--------------------|--------------------|
 |                    |                    |                    |                    |
 |  Q   Q   Q   Q     |  Q   Q   Q   Q     |  Q   Q   Q   Q     |  E (Q.) (H)        |
e|--0---0-------------|--------------------|--0---0-------------|--------------------|
B|--x---x-------------|--------------------|--x---x-------------|--------------------|
G|--2---2---4---4-----|--2---2---4---4-----|--2---2-------------|--2-----------------|
D|--2---2---5---5-----|--3---3---5---5-----|--2---2---2---2-----|--2-----------------|
A|--0---0---5---5-----|--3---3---5---5-----|--0---0---2---2-----|--0-----------------|
E|----------3---3-----|--1---1---3---3-----|----------0---0-----|--------------------|


[Chorus 3]
  Gtr 1 & 2
    Q   Q.    E Q        Q   Q.    E Q        Q   Q.    E Q        Q   Q.    E Q
e|--0---0-----0-0-----|--------------------|--------------------|--------------------|
B|--0---0-----0-0-----|--------------------|--------------------|--0---0-----0-0-----|
G|--2---2-----2-2-----|--4---4-----4-4-----|--2---2-----2-2-----|--x---x-----x-x-----|
D|--2---2-----2-2-----|--5---5-----5-5-----|--3---3-----3-3-----|--2---2-----2-2-----|
A|--0---0-----0-0-----|--5---5-----5-5-----|--3---3-----3-3-----|--2---2-----2-2-----|
E|--------------------|--3---3-----3-3-----|--1---1-----1-1-----|--0---0-----0-0-----|


    Q   Q   Q   Q        Q   Q   Q   Q        E (Q.) (H)
e|--------------------|--------------------|--------------------|
B|--------------------|--------------------|--------------------|
G|--5---5---4---4-----|----------2---2-----|--4-----------------|
D|--5---5---5---5-----|--7---7---3---3-----|--5-----------------|
A|--3---3---5---5-----|--7---7---3---3-----|--5-----------------|
E|----------3---3-----|--5---5---1---1-----|--3-----------------|


[Outro]
Guitar 2 solos over this. I will try to update the tab with a transcription of the solo.
Or I'll make a solo tab for it.

  Gtr 1
    Q   Q   Q   Q        Q   Q   Q   Q        Q   Q   Q   Q        E   Q   Q   Q
e|--------------------|--------------------|--------------------|--------------------|
B|o-------------------|--------------------|--------------------|--------------------|
G|--6---6---4---4-----|--6---6---4---4-----|--6---6---4---4-----|--6---6---4---4-----|
D|--7---7---5---5-----|--7---7---5---5-----|--7---7---5---5-----|--7---7---5---5-----|
A|o-7---7---5---5-----|--7---7---5---5-----|--7---7---5---5-----|--7---7---5---5-----|
E|--5---5---3---3-----|--5---5---3---3-----|--5---5---3---3-----|--5---5---3---3-----|
 |                    |                    |                    |                    |
 |Gtr 3               |                    |                    |                    |
 |  E(E)E E E(E)E E   |  E(E)E E E(E)E E   |  E(E)E E E(E)E E   |  E(E)E E E(Q.)     |
e|--------------------|--------------------|--------------------|--------------------|
B|o-------------------|--------------------|--------------------|--------------------|
G|--9---9-8-7---7-8---|--9---9-8-7---7-8---|--9---9-8-7---7-8---|--9---9-8-7---------|
D|--------------------|--------------------|--------------------|--------------------|
A|o-------------------|--------------------|--------------------|--------------------|
E|--------------------|--------------------|--------------------|--------------------|


    Q   Q   Q   Q        Q   Q   Q   Q        Q   Q   Q   Q        Q   Q   Q   Q     (Repeat as necessary)
e|--------------------|--------------------|--------------------|--------------------|
B|--------------------|--------------------|--------------------|-------------------o|
G|--4---4---2---2-----|--4---4---2---2-----|--4---4---2---2-----|--4---4---2---2-----|
D|--5---5---3---3-----|--5---5---3---3-----|--5---5---3---3-----|--5---5---3---3-----|
A|--5---5---3---3-----|--5---5---3---3-----|--5---5---3---3-----|--5---5---3---3----o|
E|--3---3---1---1-----|--3---3---1---1-----|--3---3---1---1-----|--3---3---1---1-----|
 |                    |                    |                    |                    |
 | (W)                | (W)                | (W)                | (W)                |
e|--------------------|--------------------|--------------------|--------------------|
B|--------------------|--------------------|--------------------|-------------------o|
G|--------------------|--------------------|--------------------|--------------------|
D|--------------------|--------------------|--------------------|--------------------|
A|--------------------|--------------------|--------------------|-------------------o|
E|--------------------|--------------------|--------------------|--------------------|


************************************
Notation Legend

|  ~   Vibrato
|  \   Slide down
|  /   Slide up
|  E   Eighth note
|  Q   Quarter note
|  H   Half note
|  W   Whole note
|  .   Dotted note
| (N)  Rest
|o o|  Reprise

************************************



Suggest correction
Creating personal tab
Creating personal tab
You can edit any tab online and save it as your Personal.

You can edit, replace or remove any tab part or add personal notes – all changes will be seen only by you.

Personal tabs can be accessed anytime from any device, even offline.
Learn more »
Give kudos to tab author, rate the tab!
1 2 3 4 5
comments
print report bad tab
guest
You may want to rate the tab now too:
select rating
Wanna post a correction for this tab? Suggest correction