Oops, an error
Loading. Please wait.

Automatic Man Tab

version 1
version 1

Whole song

Interactive

1,528 views 3 this week
no commentswrite comment
1 2 3 4 5
please rate
add to favorites
launch autoscroll
font size
0
reset
how to read this tab
guitar tuner
Autoscroll
slow
fast
+/-
esc
set tempo
stop
Help us to improve Ultimate-Guitar.com Take our survey!
×
Author
INTRO/VERSE
e------------------------------
alright so all the chords should be here but i kinda got tired of tabbing it in the 
of it so its kinda sloppy and u may have to figure some of the timing and where things go.
B------------------------------|
G--7-x-x-x-5-8-10--------------|
D--7-x-x-x-5-8-10--------------|x7
A--5-x-x-x-3-6-8---------------|
E------------------------------|

e------------------------------------|
B------------------------------------|
G------------------------------------|
D-7-7-5-5-8-8-8-5-5-7-7-7-5-5-8-10---|
A-7-7-5-5-8-8-8-5-5-7-7-7-5-5-8-10---|
E-5-5-3-3-6-6-6-3-5-5-5-5-3-3-6-8----|

e--10-10-10(bend)--|
B--10-10-10(bend)--|
G--12-12-12(bend)--|
D------------------|
A------------------|
E------------------|

CHORUS
e--------------------------|
B--------------------------|
G--777-5-333---5555555-----|
D--777-5-333-5-5555555-----|
A--555-3-111-5-3333333-----|
E------------3-------------|

e------------------------------|
B------------------------------|
G------------------------------|
D-88888888-77777777------------|
A-88888888-77777777------------|
E-66666666-55555555------------|

INTRO/VERSE

e----
B----
G--7-
D--7-let ring
A--5-
E----

e--------------------------------|
B--------------------------------|
G--7-x-x-x-5-8-10-7--------------|
D--7-x-x-x-5-8-10-7--------------|
A--5-x-x-x-3-6-8--5--------------|
E--------------------------------|
Suggest correction
Give kudos to tab author, rate the tab!
1 2 3 4 5
comments
print report bad tab
guest
You may want to rate the tab now too:
select rating
Please do not post tabs as comments. Select "correction" instead!