Oops, an error
Loading. Please wait.

Bad Religion Tab

version 1
version 1

Whole song

Interactive

10,226 views 3 this week
2 commentsread comments
1 2 3 4 5
x 6
add to favorites
launch autoscroll
font size
0
reset
how to read this tab
guitar tuner
Autoscroll
slow
fast
+/-
esc
set tempo
stop
Help us to improve Ultimate-Guitar.com Take our survey!
×
Author
Artist: Bad Religion 
Song: Bad Religion

Intro and Verse
e|--------------------------------------------------------------------
B|--------------------------------------------------------------------
G|-5---------7--------------------------------------------------------
D|-5-7-5/7-7-7-7-7-5/7-7----------------------------------------------
A|-3-7-5/7-7-5-7-7-5/7-7----------------------------------------------
E|---5-3/5-5---5-5-3/5-5----------------------------------------------

Pre Chorus
e|--------------------------------------------------------------------
B|--------------------------------------------------------------------
G|-7-7-7------9-9-9-7--7-9-9-9-7-7-7-9-9-9-7-7-7-9-9-9-7-7-7-888888888
D|-7-7-7-8--8-9-9-9-7--7-9-9-9-7-7-7-9-9-9-7-7-7-9-9-9-7-7-7-888888888
A|-5-5-5-8--8-7-7-7-5--5-7-7-7-5-5-5-7-7-7-5-5-5-7-7-7-5-5-5-666666666
E|-------6--6---------------------------------------------------------

Chorus
e|---------------------|----------------------------------------------
B|---------------------|----------------------------------------------
G|-8-------------------|-88889999999999997----------------------------
D|-8-88-88-6-6-8-88-88-|-888899999999999975---------------------------
A|-6-88-88-6-6-8-88-88-|-666677777777777755---------------------------
E|---66-66-4-4-6-66-66-|------------------7---------------------------

Outro
e|--------------------------------------------------------------------
B|--------------------------------------------------------------------
G|-8-8------8-8------8-8----------------------------------------------
D|-8-8-8-8--8-8-8-8--8-8-8--8-----------------------------------------
A|-6-6-8-8--6-6-8-8--6-6-8--8-----------------------------------------
E|-----6-6------6-6------6--6-----------------------------------------

tabed by jeff harding poo_poo_punk@hotmail.com
Suggest correction
comments
print report bad tab
2 comments total.
0 reply
Fender52 288 Apr 15, 2011 07:49 PM

Great tab but in the pre-chorus when it goes to an A# it should be a C# so it would look like this:

e|--------------------------------------------------------------------
B|--------------------------------------------------------------------
G|-7-7-7-6--6---9-9-9-7--7-9-9-9-7-7-7-9-9-9-7-7-7-9-9-9-7-7-7-888888888
D|-7-7-7-6--6--9-9-9-7--7-9-9-9-7-7-7-9-9-9-7-7-7-9-9-9-7-7-7-888888888
A|-5-5-5-4--4---7-7-7-5--5-7-7-7-5-5-5-7-7-7-5-5-5-7-7-7-5-5-5-666666666
E|--------------------------------------------------------------------

0 reply
Fender52 288 Apr 15, 2011 07:51 PM

e|--------------------------------------------------------------------
B|--------------------------------------------------------------------
G|-7-7-7-6--6-9-9-9-7--7-9-9-9-7-7-7-9-9-9-7-7-7-9-9-9-7-7-7-888888888
D|-7-7-7-6--6-9-9-9-7--7-9-9-9-7-7-7-9-9-9-7-7-7-9-9-9-7-7-7-888888888
A|-5-5-5-4--4-7-7-7-5--5-7-7-7-5-5-5-7-7-7-5-5-5-7-7-7-5-5-5-666666666
E|--------------------------------------------------------------------

There. That looks better.

guest
You may want to rate the tab now too:
select rating
Wanna post a correction for this tab? Suggest correction