Oops, an error
Loading. Please wait.

Bad Religion Bass Tab

version 2
version 2

Whole song

Interactive

1,568 views 1 this week
no commentswrite comment
1 2 3 4 5
excellent!
x 3
add to favorites
launch autoscroll
font size
0
reset
guitar tuner
Autoscroll
slow
fast
+/-
esc
set tempo
stop
Help us to improve Ultimate-Guitar.com Take our survey!
×
Author
Difficulty
novice
I was bored and I was listenin' to Bad Religion, so I thought I'd tab it out. I figured 
out in like 5mins, not very hard. Its probably not how Greg Bentley(Or whoever is the 
of Bad Religion) but it sounds exactly like it.

Tuning - Standard

Intro, jumps in after the guitarist plays intro 5x

|-----------------------------------|
|-----------------------------------|
|-3-----------5---------------------|
|---5-3--5-5----5-5--3--------------| Listen to song for the speed and tempo.

|-----------------------------------|
|-----------------------------------|
|-3-----------5---------------------|
|---5-3--5-5----5-5--3--------------|

|-----------------------------------|
|-----------------------------------|
|-3-----------5---------------------|
|---5-3--5-5----5-5--3--------------|

Verse

|-----------------------------------|
|-----------------------------------|
|-3-----------5---------------------|
|---5-3--5-5----5-5--3--------------|

|-----------------------------------|
|-----------------------------------|
|-3-----------5---------------------|
|---5-3--5-5----5-5--3--------------|

|-----------------------------------|
|-----------------------------------|
|-3-----------5---------------------|
|---5-3--5-5----5-5--3--------------|

And you do the same for the next verse. I havent figure out the chorus yet.. but when i 
i'll submit it.

Well, comment and/or rate.
Suggest correction
Give kudos to tab author, rate the tab!
1 2 3 4 5
comments
print report bad tab
guest
You may want to rate the tab now too:
select rating
Wanna post a correction for this tab? Suggest correction