Oops, an error
Loading. Please wait.

Before You Die Bass Tab

version 1
version 1

Whole song

Interactive

1,842 views 1 this week
no commentswrite comment
1 2 3 4 5
please rate
add to favorites
launch autoscroll
font size
0
reset
guitar tuner
Tab Pro tools
  • play this tab
  • loop segment
  • change instrument
  • show fretboard
  • metronome
×
Best way to learn
"Before You Die"
Autoscroll
slow
fast
+/-
esc
set tempo
stop
Contributor
Difficulty
novice
                            BEFORE YOU DIE (Bassline)
                           As recorded by Bad Religion
                     (From the 2007 Album NEW MAPS OF HELL)

Words and Music by Bad Religion
Arranged by Bad Religion
Transcribed by Spidey255

Gtr I (Eb Ab Db Gb) - 'Untitled'

 Intro
  Q=163(8=s8)
 4/4
  Gtr I
  W          W          W          W
|----------|----------|----------|------|
|----------|----------|----------|------|
|----------|----------|----------|------|
|----------|----------|----------|------|


   Verse
    $
    q  q  q  Q    q  q  E E Q    q  q  q  Q    q  q  E E Q
||--------------|--------------|-------------|---------------||
||o-------------|--------------|-------------|--------------o||
||o-------------|-2--2--2-2-2--|-------------|-2--2--2-2-2--o||
||--3--3--3--3--|--------------|-3--3--3--3--|---------------||


 Pre-Chorus
  $$
  Q  Q  E E Q    Q  Q  E E Q    Q  Q  E E Q    Q  Q  E E Q
|--------------|--------------|--------------|---------------|
|--------------|--------------|--------------|---------------|
|--------------|--------------|--------------|---------------|
|-5--5--5-5-5--|-5--5--5-5-5--|-7--7--7-7-7--|-7--7--7-7-7---|


  Q  Q  E  E  Q     Q   Q   Q   Q    Q  Q  E E Q    Q  Q  Q  Q
|----------------|-----------------|--------------|--------------|
|----------------|-----------------|--------------|--------------|
|------------10S=|=12--12----------|--------------|-5------------|
|-5--5--5s12-----|---------12--12--|-7--7--7-7-7--|----5--0--2---|


                    To Coda
                    To Coda
  Q  Q  E E Q    Q  Q  E E Q    Q  Q  Q  Q    Q  Q  Q  Q
|--------------|--------------|-------------|----------4---|
|--------------|--------------|----5--4-----|-------4------|
|--------------|--------------|----------5--|-2--5---------|
|-3--3--3-3-3--|-2--2--2-2-2S=|=3-----------|--------------|


             D.S. al Coda     &
  Q  Q  Q  Q    Q  Q  Q  Q      W           +W
|-------------|-------------|------------|---------|
|----5--4-----|-------------|------------|---------|
|----------5--|-2--0--------|-/10--------|-(10)----|
|-3-----------|-------0--2--|------------|---------|


 Chorus
                           |-3-|
  Q  Q  E E Q    Q  Q  E E E E E   Q  Q  E E Q    Q  Q  Q  Q
|--------------|-----------------|--------------|-------------|
|--------------|-----------------|--------------|-------4--5--|
|--------------|-----------------|-5--5--5-5-5--|-5--7--------|
|-7--7--7-7-7--|-7--7--7-7-7-7-7-|--------------|-------------|


  E E Q  E E Q    Q  Q   Q  Q    Q  Q  E E Q    Q  Q  E E Q
|---------------|--------------|--------------|---------------|
|-7-7-7--7-7-7--|-7--7---------|--------------|-------9-7-----|
|---------------|-------/7--7--|--------------|----9------9---|
|---------------|--------------|-7--7--7-7-7--|-7-------------|


  Q  Q  E E Q    Q  Q  E E Q    Q  Q  E E Q    E E E E E E E E
|--------------|--------------|--------------|------------------|
|--------------|--------------|--------------|---------4-4-5-5--|
|--------------|-----------4--|-5--5--5-5-5--|-5-5-7-7----------|
|-7--7--7-7-7--|-7--7--7-7----|--------------|------------------|


                                                      |-3-| |-3-|
  E E Q  E E Q    Q  Q   Q  Q    Q  Q  E E Q    Q  Q  E E E E E E
|---------------|--------------|--------------|--------------------|
|-7-7-7--7-7-7--|-7--7---------|--------------|--------------------|
|---------------|-------/7--7--|--------------|--------------------|
|---------------|--------------|-7--7--7-7-7--|-7--7--7-7-7-7-7-7--|


                                                    |-3-| |-3-|
  Q  Q  E E Q    Q  Q  Q  Q    Q  Q  E E Q    Q  Q  E E E E E E
|--------------|-------------|--------------|--------------------|
|--------------|-------------|--------------|--------------------|
|--------------|-5--5--------|--------------|--------------------|
|-3--3--3-3-3--|-------5--5--|-7--7--7-7-7--|-7--7--7-7-7-7-7-7--|


   Guitar Solo
    q  q  q  Q    q  q  E E Q   3x q  q  q  Q    Q  Q  Q  Q
||--------------|---------------||-------------|-------------|
||o-------------|--------------o||-------------|-------------|
||o-------------|-2--2--2-2-2--o||----------3S=|=9--7--5--4--|
||--3--3--3--3--|---------------||-3--3--3-----|-------------|


 Verse
  W          W          Q  Q  Q  Q    Q  Q  Q  Q
|----------|----------|-------------|--------------|
|----------|----------|----5--4-----|--------------|
|----------|----------|----------5--|-2--0---------|
|----------|----------|-3-----------|-------0--2---|


                                D.S.S. al Dbl. Coda
  q  q  q  Q    q  q  E E Q    Q  Q  Q  Q    Q  Q  H
|-------------|--------------|-------------|------------|
|-------------|--------------|----5--4-----|------------|
|-------------|-2--2--2-2-2--|----------5--|-2----------|
|-3--3--3--3--|--------------|-3-----------|------------|


 Outro
  &&
  Q  Q  E E Q    Q  Q  Q  Q    Q  Q  E E Q    Q  Q  E E Q
|--------------|-------------|--------------|---------------|
|--------------|-------------|--------------|---------------|
|--------------|-5-----------|--------------|---------------|
|-7--7--7-7-7--|----5--0--2--|-3--3--3-3-3--|-2--2--2-2-2---|


                  |--3--|  |--3--|  |--3--|  |--3--|
  Q  Q  E E Q     E  E  E  E  E  E  E  E  E  E  E  E
|--------------|-------------------------------------|
|--------------|-------------------------------------|
|-2--2--2-2-2S=|=14-14-14-14-14-14-14-14-14-14-14-14-|
|--------------|-------------------------------------|


    Q  Q  E E Q    Q  Q  Q  Q
||---------------|---------------|
||o--------------|---------------|
||o--------------|-5--5----------|
||--3--3--3-3-3--|-------5--5----|


  1.                             2.
                                  |-3-| |-3-| |-3-| |-3-|
  Q  Q  E E Q    Q  Q  E E Q      E E E E E E E E E E E E   Q  Q  H
|--------------|---------------||-------------------------|------------*|
|--------------|--------------o||-------------------------|------------*|
|--------------|--------------o||-------------------------|------------*|
|-7--7--7-7-7--|-5--5--5-5-5---||-7-7-7-7-7-7-7-7-7-7-7-7-|-7----------*|


Duration Legend
---------------
W - whole; H - half; Q - quarter; E - 8th; S - 16th; T - 32nd; X - 64th; a - acciaccatura
+ - note tied to previous; . - note dotted; .. - note double dotted
Uncapitalized letters represent notes that are staccato (1/2 duration)
Irregular groupings are notated above the duration line
Duration letters will always appear directly above the note/fret number it represents the
duration for.  Duration letters with no fret number below them represent rests.  Multi-
bar rests are notated in the form Wxn, where n is the number of bars to rest for.  Low
melody durations appear below the staff

Tablature Legend
----------------
 h   - hammer-on
 p   - pull-off
 b   - bend
 pb  - pre-bend
 r   - bend release (if no number after the r, then release immediately)
 /\  - slide into or out of (from/to "nowhere")
 s   - legato slide
 S   - shift slide
  - natural harmonic
[n]  - artificial harmonic
n(n) - tapped harmonic
 ~   - vibrato
 tr  - trill
 T   - tap
 TP  - trem. picking
 PM  - palm muting
\n/  - tremolo bar dip; n = amount to dip
 \n  - tremolo bar down
 n/  - tremolo bar up
/n\  - tremolo bar inverted dip
 =   - hold bend; also acts as connecting device for hammers/pulls
 <>  - volume swell (louder/softer)
 x   - on rhythm slash represents muted slash
 o   - on rhythm slash represents single note slash

Misc Legend
-----------
 |  - bar
||  - double bar
||o - repeat start
o|| - repeat end
*|  - double bar (ending)
 :  - bar (freetime)
 $  - Segno
 &  - Coda
Tempo markers -  = BPM(8/16=s8/s16), where s8 = swing 8ths, s16 = swing 16ths


***************************************************************************************
* Generated using Power Tab Editor by Brad Larsen - http://powertab.guitarnetwork.org *
***************************************************************************************
comments
We did not receive enough feedback on this tab! Please rate:
print report bad tab
1 2 3 4 5
I want to post or [tab]
guest
You may want to rate the tab now too:
select rating
Please do not post tabs as comments. Select "correction" instead!