Oops, an error
Loading. Please wait.

Come Join Us Bass Tab

version 1
version 1

Whole song

Interactive

875 views 1 this week
no commentswrite comment
1 2 3 4 5
3 more votes to show rating
add to favorites
launch autoscroll
font size
0
reset
guitar tuner
Autoscroll
slow
fast
+/-
esc
set tempo
stop
Help us to improve Ultimate-Guitar.com Take our survey!
×
Author
Difficulty
novice
~: Let ring

Intro (bass is optional but it goes like this)
D--------------------------------------------------------------------|
G----------------PICK------------------------------------------------|
A----3~----------SCRAP-----------------------------------------------|
E--0~---3-5-0~-------------------------------------------------------|

Verse
D-----------------------------------------------------------------|
G-----------------------------------------------------------------|
A-----------------3-3-3-3-3-3-3-3---------------------------------|
E-0-0-0-0-0-0-0-0-----------------3-3-3-3-5-5-5-5-0-0-0-0-0-0-0-0-|

Pre-Chorus
D-----------------------------------------------------------------|
G-----------------------------------------------------------------|
A----------5-5-5-5-7-7-7-7-7-7-7-7--------5-5-5-5-----------------|
E--3-3-3-3-------------------------3-3-3-3-------7-7-7-7-7-7-7-7--|

Chorus
D----------------------------------------------------------------------|
G----------------------------------------------------------------------|
A----------3-3-3-3---------5-5-7-7---------5-5-5-5---------------------|
E--0-0-0-0---------0-0-0-0---------0-0-0-0---------7-7-7-7-7-7-7-7-----|

Bridge
D-----------------------------------------------------------------------------|
G-----------------------------------------------------------------------------|
A---------3-3-3-3---------5-5-5-5---------3-3-3-3-----------------------------|
E-0-0-0-0---------3-3-3-3---------0-0-0-0---------7-7-7-7-7-7-7-7-------------|

Solo
I wasn\'t able to tab the solo... it\'s pretty hard \'cause you barely hear the bass 
Tell me if you figure it out!


Here\'s the structure of that bloody cool punk rock song:

Intro x1
Verse x1
Pre-Chorus x1
Chorus x1
Verse x2
Pre-Chorus x1
Bridge x1
Chorus x1
Solo
Verse x2
Chorus x1

That\'s quite good, actually... In fact, I\'m a guitarist but I know how to play the 
guitar so I made up this cool tab for my friend Nic, a bass player!

Just be yourself, dude!
Suggest correction
Give kudos to tab author, rate the tab!
1 2 3 4 5
comments
print report bad tab
guest
You may want to rate the tab now too:
select rating
Wanna post a correction for this tab? Suggest correction