Oops, an error
Loading. Please wait.

Dearly Beloved Tab

version 2
version 2

Whole song

Interactive

2,320 views 1 this week
no commentswrite comment
1 2 3 4 5
accurate
x 3
add to favorites
launch autoscroll
font size
0
reset
how to read this tab
guitar tuner
Tab Pro tools
  • play this tab
  • loop segment
  • change instrument
  • show fretboard
  • metronome
×
Best way to learn
"Dearly Beloved"
Autoscroll
slow
fast
+/-
esc
set tempo
stop
Contributor
(Verse x4)
e|------------------------------------------------------------------------------|
B|------------------------------------------------------------------------------|
G|----------7-7-7-7-----------9-9-9-9-------------------------------------------|
D|-4-4-4-4--7-7-7-7--7-7-7-7--9-9-9-9-------------------------------------------|
A|-4-4-4-4--5-5-5-5--7-7-7-7--7-7-7-7-------------------------------------------|
E|-2-2-2-2-----------5-5-5-5----------------------------------------------------|


(Chorus)
e|------------------------------------------------------------------------------|
B|------------------------------------------------------------------------------|
G|------------------9-9-9-9-9-9-9-9-------------------7-7-7-7-7-7-7-7-----------|
D|-4-4-4-4-4-4-4-4--9-9-9-9-9-9-9-9--7-7-7-7-7-7-7-7--7-7-7-7-7-7-7-7-----------|
A|-4-4-4-4-4-4-4-4--7-7-7-7-7-7-7-7--7-7-7-7-7-7-7-7--5-5-5-5-5-5-5-5-----------|
E|-2-2-2-2-2-2-2-2-------------------5-5-5-5-5-5-5-5----------------------------|


(I can't relate to you.. X2)
e|------------------------------------------------------------------------------|
B|------------------------------------------------------------------------------|
G|----------7---7-----------9---9-----------------------------------------------|
D|-4---4----7---7---7---7---9---9-----------------------------------------------|
A|-4---4----5---5---7---7---7---7-----------------------------------------------|
E|-2---2------------5---5-------------------------------------------------------|


(Verse x4)
e|------------------------------------------------------------------------------|
B|------------------------------------------------------------------------------|
G|----------7-7-7-7-----------9-9-9-9-------------------------------------------|
D|-4-4-4-4--7-7-7-7--7-7-7-7--9-9-9-9-------------------------------------------|
A|-4-4-4-4--5-5-5-5--7-7-7-7--7-7-7-7-------------------------------------------|
E|-2-2-2-2-----------5-5-5-5----------------------------------------------------|


(Chorus)
e|------------------------------------------------------------------------------|
B|------------------------------------------------------------------------------|
G|------------------9-9-9-9-9-9-9-9-------------------7-7-7-7-7-7-7-7-----------|
D|-4-4-4-4-4-4-4-4--9-9-9-9-9-9-9-9--7-7-7-7-7-7-7-7--7-7-7-7-7-7-7-7-----------|
A|-4-4-4-4-4-4-4-4--7-7-7-7-7-7-7-7--7-7-7-7-7-7-7-7--5-5-5-5-5-5-5-5-----------|
E|-2-2-2-2-2-2-2-2-------------------5-5-5-5-5-5-5-5----------------------------|


(I can't relate to you.. X4)
e|------------------------------------------------------------------------------|
B|------------------------------------------------------------------------------|
G|----------7---7-----------9---9-----------------------------------------------|
D|-4---4----7---7---7---7---9---9-----------------------------------------------|
A|-4---4----5---5---7---7---7---7-----------------------------------------------|
E|-2---2------------5---5-------------------------------------------------------|


(Bridge X2)
e|------------------------------------------------------------------------------|
B|------------------------------------------------------------------------------|
G|------------------9-9-9-9-9-9-9-9--7-7-7-7-7-7-7-7--6-6-6-6-6-6-6-6-----------|
D|-4-4-4-4-4-4-4-4--9-9-9-9-9-9-9-9--7-7-7-7-7-7-7-7--6-6-6-6-6-6-6-6-----------|
A|-4-4-4-4-4-4-4-4--7-7-7-7-7-7-7-7--5-5-5-5-5-5-5-5--4-4-4-4-4-4-4-4-----------|
E|-2-2-2-2-2-2-2-2--------------------------------------------------------------|


(Bridge#2)
e|------------------------------------------------------------------------------|
B|------------------------------------------------------------------------------|
G|-7-7-7-7-7-7-7-7--9-9-9-9-9-9-9-9--7-7-7-7-7-7-7-7----------------------------|
D|-7-7-7-7-7-7-7-7--9-9-9-9-9-9-9-9--7-7-7-7-7-7-7-7----------------------------|
A|-5-5-5-5-5-5-5-5--7-7-7-7-7-7-7-7--5-5-5-5-5-5-5-5----------------------------|
E|------------------------------------------------------------------------------|


(Chorus)
e|------------------------------------------------------------------------------|
B|------------------------------------------------------------------------------|
G|------------------9-9-9-9-9-9-9-9-------------------7-7-7-7-7-7-7-7-----------|
D|-4-4-4-4-4-4-4-4--9-9-9-9-9-9-9-9--7-7-7-7-7-7-7-7--7-7-7-7-7-7-7-7-----------|
A|-4-4-4-4-4-4-4-4--7-7-7-7-7-7-7-7--7-7-7-7-7-7-7-7--5-5-5-5-5-5-5-5-----------|
E|-2-2-2-2-2-2-2-2-------------------5-5-5-5-5-5-5-5----------------------------|


(I can't relate to you.. X4) Finishing with  VVVVV
e|------------------------------------------------------------------------------|
B|------------------------------------------------------------------------------|
G|----------7---7-----------9---9--------9-9-9-9--------------------------------|
D|-4---4----7---7---7---7---9---9--------9-9-9-9--------------------------------|
A|-4---4----5---5---7---7---7---7--------7-7-7-7--------------------------------|
E|-2---2------------5---5-------------------------------------------------------|
comments
We did not receive enough feedback on this tab! Please rate:
print report bad tab
1 2 3 4 5
I want to post or [tab]
guest
You may want to rate the tab now too:
select rating
Please do not post tabs as comments. Select "correction" instead!