Oops, an error
Loading. Please wait.

Dearly Beloved Tab

version 3
version 3

Whole song

Interactive

503 views 1 this week
no commentswrite comment
1 2 3 4 5
please rate
add to favorites
launch autoscroll
font size
0
reset
how to read this tab
guitar tuner
Autoscroll
slow
fast
+/-
esc
set tempo
stop
Help us to improve Ultimate-Guitar.com Take our survey!
×
Author
Difficulty
Band: Bad Religion
Song: Dearly Beloved
Album: New Maps of Hell

GUITAR 1

Intro I
e)------------------------------|
B)-----------------------h--p---|
G)----------------------9-10-9--|
D)7--6--7--9-10---10-10---------| Repeat 3x
A)------------------------------|
E)------------------------------|

Intro II
e)---------------------------------|
B)---------------------------------|
G)9--------5-------4---------------|
D)---------------------------------|
A)---------------------------------|
E)---------------------------------|

Verse
e)--------------------------------|
B)--------------------------------|
G)----------------5-5-5-5---------|
D)7-7-7-7-3-3-3-3-5-5-5-5-5-5-5-5-| Repeat 4x
A)7-7-7-7-3-3-3-3-3-3-3-3-5-5-5-5-|
E)5-5-5-5-1-1-1-1---------3-3-3-3-|

Pre-Chorus
e)----------------------------------------------------------------|
B)----------------------------------------------------------------|
G)----------------4-4-4-4-4-4-4-4-5-5-5-5-5-5-5-5-----------------|
D)7-7-7-7-7-7-7-7-4-4-4-4-4-4-4-4-5-5-5-5-5-5-5-5-3-3-3-3-3-3-3-3-|
A)7-7-7-7-7-7-7-7-2-2-2-2-2-2-2-2-3-3-3-3-3-3-3-3-3-3-3-3-3-3-3-3-|
E)5-5-5-5-5-5-5-5---------------------------------1-1-1-1-1-1-1-1-|

Chorus
e)--------------------------------|
B)--------------------------------|
G)----------------5-5-5-5---------|
D)7-7-7-7-3-3-3-3-5-5-5-5-5-5-5-5-|
A)7-7-7-7-3-3-3-3-3-3-3-3-5-5-5-5-|
E)5-5-5-5-1-1-1-1---------3-3-3-3-|

e)-------------------------------|
B)-------------------------------|
G)-------------------------------|
D)7-7-7-7-3-3-3-3--2-2-2-2-2-2-2-|
A)7-7-7-7-3-3-3-3--2-2-2-2-2-2-2-|
E)5-5-5-5-1-1-1-1--0-0-0-0-0-0-0-|

Pre-Verse
e)--------------------------------------------------------|
B)-----------------------h--p-----------------------------|
G)----------------------9-10-9----------------------------|
D)7--6--7--9-10---10-10---------7--6--7--9-10-------------|
A)--------------------------------------------------------|
E)--------------------------------------------------------|

Repeat Verse - 4x

Repeat Pre-Chorus - 1x

Repeat Chorus - 1x

Bridge I
pm. . . . . . . . . . . . . . . . . . . . . . . . . . . . . . . . 
e)----------------------------------------------------------------|
B)----------------------------------------------------------------|
G)----------------------------------------------------------------|
D)7-7-7-7-7-7-7-7-7-7-7-7-7-7-7-7-5-5-5-5-5-5-5-5-5-5-5-5-5-5-5-5-| 
A)7-7-7-7-7-7-7-7-7-7-7-7-7-7-7-7-5-5-5-5-5-5-5-5-5-5-5-5-5-5-5-5-|
E)5-5-5-5-5-5-5-5-5-5-5-5-5-5-5-5-3-3-3-3-3-3-3-3-3-3-3-3-3-3-3-3-|

pm. . . . . . . . . . . . . . . . . . . . . . . . . . . . . . . . 
e)----------------------------------------------------------------|
B)----------------------------------------------------------------|
G)----------------------------------------------------------------|
D)3-3-3-3-3-3-3-3-3-3-3-3-3-3-3-3-2-2-2-2-2-2-2-2-2-2-2-2-2-2-2-2-| 
A)3-3-3-3-3-3-3-3-3-3-3-3-3-3-3-3-2-2-2-2-2-2-2-2-2-2-2-2-2-2-2-2-|
E)1-1-1-1-1-1-1-1-1-1-1-1-1-1-1-1-0-0-0-0-0-0-0-0-0-0-0-0-0-0-0-0-|


e)--------------------------------------------------------|
B)--------------------------------------------------------|
G)--------------------------------------------------------|
D)7-7--7-7-7--7-7-7--7-7-7--7-9-9--9-9-9--9-9-9--9-9-9--9-|
A)--------------------------------------------------------|
E)--------------------------------------------------------|

e)--------------------------------------------------------------------|
B)--------------------------------------------------------------------|
G)--------------------------------------------------------------------|
D)10-10--10-10-10--10-10-10--10-10-10--10-9-9--9-9-9--9-9-9--9-9-9--9-|
A)--------------------------------------------------------------------|
E)--------------------------------------------------------------------|

Bridge II
e)----------------------------------------------------------------|
B)----------------------------------------------------------------|
G)----------------------------------------------------------------|
D)---------------------------x-x-x--------------------------------|
A)---------------------------x-x-x--------------------------------|
E)---------------------------x-x-x--------------------------------|

e)----------------------------------------------------------------|
B)----------------------------------------------------------------|
G)----------------------------------------------------------------|
D)--------------------------------------------------------------7-|
A)--------------------------------------------------------------7-|
E)--------------------------------------------------------------5-|

e)-----------------------------------|
B)-----------------------------------|
G)------------------5----------------|
D)--------3---------5-------/--------|
A)--------3---------3-------/--------|
E)--------1-----------------/--------|

Repeat Pre-Chorus - 1x

Final Chorus
e)--------------------------------|
B)--------------------------------|
G)----------------5-5-5-5---------|
D)7-7-7-7-3-3-3-3-5-5-5-5-5-5-5-5-| 4x
A)7-7-7-7-3-3-3-3-3-3-3-3-5-5-5-5-|
E)5-5-5-5-1-1-1-1---------3-3-3-3-|

End On:
e)--------------------------------|
B)--------------------------------|
G)--------------------------------|
D)7-------------------------------|
A)7-------------------------------|
E)5-------------------------------|


________________________________________________________________________


GUITAR 2

Intro I
e)-------------------------------|
B)-------------------------------|
G)--------------5--5-5-5-5-5-5-5-|
D)2-2-2-2-2-2-2-5--5-5-5-5-5-5-5-| 3x
A)2-2-2-2-2-2-2-3--3-3-3-3-3-3-3-|
E)0-0-0-0-0-0-0------------------|

Intro II
e)--------------------------------------------------------|
B)--------------------------------------------------------|
G)--------------------------------------------------------|
D)3-3-3-3-3-3-3-3-3-3-3-3-3-3-3-3-5-5-5-5-5-5-5-5-5-------|
A)3-3-3-3-3-3-3-3-3-3-3-3-3-3-3-3-5-5-5-5-5-5-5-5-5-------|
E)1-1-1-1-1-1-1-1-1-1-1-1-1-1-1-1-3-3-3-3-3-3-3-3-3-------|

Verse
e)--------------------------------|
B)--------------------------------|
G)----------------5-5-5-5---------|
D)7-7-7-7-3-3-3-3-5-5-5-5-5-5-5-5-| Repeat 4x
A)7-7-7-7-3-3-3-3-3-3-3-3-5-5-5-5-|
E)5-5-5-5-1-1-1-1---------3-3-3-3-|

Pre-Chorus
e)----------------------------------------------------------------|
B)----------------------------------------------------------------|
G)----------------4-4-4-4-4-4-4-4-5-5-5-5-5-5-5-5-----------------|
D)7-7-7-7-7-7-7-7-4-4-4-4-4-4-4-4-5-5-5-5-5-5-5-5-3-3-3-3-3-3-3-3-|
A)7-7-7-7-7-7-7-7-2-2-2-2-2-2-2-2-3-3-3-3-3-3-3-3-3-3-3-3-3-3-3-3-|
E)5-5-5-5-5-5-5-5---------------------------------1-1-1-1-1-1-1-1-|

Chorus
e)--------------------------------|
B)--------------------------------|
G)----------------5-5-5-5---------|
D)7-7-7-7-3-3-3-3-5-5-5-5-5-5-5-5-|
A)7-7-7-7-3-3-3-3-3-3-3-3-5-5-5-5-|
E)5-5-5-5-1-1-1-1---------3-3-3-3-|

e)-------------------------------|
B)-------------------------------|
G)-------------------------------|
D)7-7-7-7-3-3-3-3--2-2-2-2-2-2-2-|
A)7-7-7-7-3-3-3-3--2-2-2-2-2-2-2-|
E)5-5-5-5-1-1-1-1--0-0-0-0-0-0-0-|

Repeat Intro I - 2x

Repeat Verse - 4x

Repeat Pre-Chorus - 1x

Repeat Chorus - 1x

Bridge I
pm. . . . . . . . . . . . . . . . . . . . . . . . . . . . . . . . 
e)----------------------------------------------------------------|
B)----------------------------------------------------------------|
G)----------------------------------------------------------------|
D)7-7-7-7-7-7-7-7-7-7-7-7-7-7-7-7-5-5-5-5-5-5-5-5-5-5-5-5-5-5-5-5-| 
A)7-7-7-7-7-7-7-7-7-7-7-7-7-7-7-7-5-5-5-5-5-5-5-5-5-5-5-5-5-5-5-5-|
E)5-5-5-5-5-5-5-5-5-5-5-5-5-5-5-5-3-3-3-3-3-3-3-3-3-3-3-3-3-3-3-3-|

pm. . . . . . . . . . . . . . . . . . . . . . . . . . . . . . . . 
e)----------------------------------------------------------------|
B)----------------------------------------------------------------| 
G)----------------------------------------------------------------| Repeat
D)3-3-3-3-3-3-3-3-3-3-3-3-3-3-3-3-2-2-2-2-2-2-2-2-2-2-2-2-2-2-2-2-| Bridge I
A)3-3-3-3-3-3-3-3-3-3-3-3-3-3-3-3-2-2-2-2-2-2-2-2-2-2-2-2-2-2-2-2-| 2x
E)1-1-1-1-1-1-1-1-1-1-1-1-1-1-1-1-0-0-0-0-0-0-0-0-0-0-0-0-0-0-0-0-|

Bridge II
pm. . . . . . . . . . . . . . . .
e)--------------------------------|
B)--------------------------------|
G)----------------5-5-5-5---------|
D)7-7-7-7-3-3-3-3-5-5-5-5-5-5-5-5-| 2x
A)7-7-7-7-3-3-3-3-3-3-3-3-5-5-5-5-|
E)5-5-5-5-1-1-1-1---------3-3-3-3-|

pm. . . . . . . . . . . . . . . 
e)--------------------------------|
B)--------------------------------|
G)----------------5-5-5-5---------|
D)7-7-7-7-3-3-3-3-5-5-5-5-5-5-5-7-| 
A)7-7-7-7-3-3-3-3-3-3-3-3-5-5-5-7-|
E)5-5-5-5-1-1-1-1---------3-3-3-5-|

e)-----------------------------------|
B)-----------------------------------|
G)------------------5----------------|
D)--------3---------5-------5--------|
A)--------3---------3-------5--------|
E)--------1-----------------3--------|

Repeat Pre-Chorus - 1x

Final Chorus
e)--------------------------------|
B)--------------------------------|
G)----------------5-5-5-5---------|
D)7-7-7-7-3-3-3-3-5-5-5-5-5-5-5-5-| 4x
A)7-7-7-7-3-3-3-3-3-3-3-3-5-5-5-5-|
E)5-5-5-5-1-1-1-1---------3-3-3-3-|

End On:
e)--------------------------------|
B)--------------------------------|
G)--------------------------------|
D)7-------------------------------|
A)7-------------------------------|
E)5-------------------------------|


KEY:
h - hammer on
p - pull off
pm. . - palm mute
/ - pick slide

*Please comment and rate!*
Suggest correction
Give kudos to tab author, rate the tab!
1 2 3 4 5
comments
print report bad tab
guest
You may want to rate the tab now too:
select rating
Wanna post a correction for this tab? Suggest correction