Oops, an error
Loading. Please wait.
We have an official Delirium Of Disorder tab made by UG professional guitarists. Check out the tab »
×
97 views 3 this week
no commentswrite comment
1 2 3 4 5
2 more votes to show rating
add to favorites
×
Save as Personal and add changes to this tab that will be seen only by you. Learn more ›
×
You can save this tab as Personal to edit and correct it or add notes. All changes will be seen only by you. Learn more »
launch autoscroll
font size
0
reset
guitar tuner
edit
Autoscroll
slow
fast
+/-
esc
set tempo
stop
Author
Difficulty
Song: Delirium Of Disorder
Artist: Bad Religion
Album: Suffer
Genre: Melodic Hardcore Punk
Year: 1988

Hey guys! This is the bass of the song and it's 100% correct.

Riff 1:

G:----------------------
D:----------------------
A:----------------------
E:---3-55555-3-5555-6---

Riff 2:

G:------------------------
D:------------------------
A:------------------------
E:---3-33-1-11-0-000000---

Riff 3:

G:--------------------------------------------------------------------------
D:--------------------------------------------------------------------------
A:--------------------------------------------------------------------------
E:---5-5555555-5555555-5555555-5555-33-1-1111111-1111-33-5-5555555-555555---

Riff 4:

G:---------------
D:---------------
A:---------------
E:---5-5555-33---

Riff 5:

G:------------------
D:------------------
A:------------------
E:---5-5555-33-55---

The order is:
.Riff 1 x3
.Riff 2 x1
.Riff 1 x3
.Riff 2 x1
.Riff 3 x2
.Riff 1 x5
.Riff 2 x1
.Riff 1 x3
.Riff 2 x1
.Riff 4 x8
.Riff 3 x2
.Riff 1 x5
.Riff 2 x1
.Riff 1 x3
.Riff 2 x1
.Riff 1 x3
.Riff 2 x1
.Riff 1 x3
.Riff 2 x1
.Riff 5 x1






Tab by: mdc_ivan




Suggest correction
Creating personal tab
Creating personal tab
You can edit any tab online and save it as your Personal.

You can edit, replace or remove any tab part or add personal notes – all changes will be seen only by you.

Personal tabs can be accessed anytime from any device, even offline.
Learn more »
Give kudos to tab author, rate the tab!
1 2 3 4 5
comments
print report bad tab
guest
You may want to rate the tab now too:
select rating
Wanna post a correction for this tab? Suggest correction