Oops, an error
Loading. Please wait.

Empire Strikes First Tab

version 1
version 1

Whole song

Interactive

2,484 views 3 this week
3 commentsread comments
1 2 3 4 5
x 4
add to favorites
launch autoscroll
font size
0
reset
how to read this tab
guitar tuner
×
Best way to learn
"Empire Strikes First"
Autoscroll
slow
fast
+/-
esc
set tempo
stop
-------------------------------------------------------------------------------
                       The Empire Strikes First - Bad Religion
-------------------------------------------------------------------------------
This is a great, but underrated song off their cd. 
i couldn't find the tab anywhere, so i figured i'd give it a try myself.
it's pretty straightforward. if you have any improvements or can figure 
out the solo, please update it...otherwise i'll try to update the solo eventually.

Tuning: Standard EADGBe

Order:
verse 8x
chorus 2x
verse 6x
chorus 2x
verse 2x
bridge 2x
solo
chorus 2x
another solo

*=pm

verse
e------------------------------------|
b------------------------------------|
g-----------7-7-7-7-5-5-5---5--------|
d--7-7-7-7--7-7-7-7-5-5-5-5-5-5------|
a--7-7-7-7--5-5-5-5-3-3-3-3-3-5------|
e--5-5-5-5----------------3---3------|
       * *      * *     

chorus
e-----------------------------------------------------------------------------|
b-----------------------------------------------------------------------------|
g-----------7-----------5------------------------5----------------------------|
d--7--------7-(8x)------5-(8x)------5------------5-(4x)-----------------------|
a--7-(8x)----5----------3-----------5-(4x)-------3----------------------------|
e--5--------------------------------3-----------------------------------------|


bridge " we just started out..."
e---------------------------------------------------|
b---------------------------------------------------|
g---------------------------------------------------|
d---------------------------------------------------|
a-0-0-3-0-3------3-0-3------3-0-3-------------------|
e------------3-3--------2-2-----------1------3------|
Suggest correction
comments
print report bad tab
3 comments total.
+1 reply
achunkymonkey8u 86 Feb 18, 2005 07:00 PM

Sorry it came out poorly, but here's how the verse is supposed to look:

|------------------------------------------------|
|------------------------------------------------|
|---------7-7-x-x-5-5-x---5----------------------|
|-7-7-x-x-7-7-x-x-5-5-x-5-5-5-------------------|
|-7-7-x-x-5-5-x-x-3-3-x-5-3-5-------------------|
|-5-5-x-x----------------3---3-------------------|

0 reply
70x7 56 Apr 19, 2005 08:00 PM

Actually dude the verse is:

|--------------------------------------------------|
|--------------------------------------------------|
|---------7-7-x-x-5-5------------------------------|
|-7-7-x-x-7-7-x-x-5-5-5-3-5------------------------|
|-7-7-x-x-5-5-x-x-3-3-5-3-5------------------------|
|-5-5-x-x-------------3-1-3------------------------|

0 reply
*don-gappo* 10 Jan 19, 2006 07:33 AM

i agree with the 70x7 guy
and u completely messed up the chorus
the chorus on version 2 is perfect
this one sucks!
no offence

guest
You may want to rate the tab now too:
select rating
Wanna post a correction for this tab? Suggest correction